  0
SECTION
  2
HEADER
  9
$ACADVER
  1
AC1015
  9
$ACADMAINTVER
 70
     6
  9
$DWGCODEPAGE
  3
ANSI_1252
  9
$INSBASE
 10
0.0
 20
0.0
 30
0.0
  9
$EXTMIN
 10
0.0
 20
0.0
 30
0.0
  9
$EXTMAX
 10
1000.0
 20
1000.0
 30
0.0
  9
$LIMMIN
 10
0.0
 20
0.0
  9
$LIMMAX
 10
1000.0
 20
1000.0
  9
$ORTHOMODE
 70
     0
  9
$REGENMODE
 70
     1
  9
$FILLMODE
 70
     1
  9
$QTEXTMODE
 70
     0
  9
$MIRRTEXT
 70
     1
  9
$LTSCALE
 40
1.0
  9
$ATTMODE
 70
     1
  9
$TEXTSIZE
 40
3.5
  9
$TRACEWID
 40
1.0
  9
$TEXTSTYLE
  7
Standard
  9
$CLAYER
  8
0
  9
$CELTYPE
  6
ByLayer
  9
$CECOLOR
 62
   256
  9
$CELTSCALE
 40
1.0
  9
$DISPSILH
 70
     0
  9
$DIMSCALE
 40
1.0
  9
$DIMASZ
 40
3.302
  9
$DIMEXO
 40
1.0
  9
$DIMDLI
 40
3.75
  9
$DIMRND
 40
0.0
  9
$DIMDLE
 40
0.0
  9
$DIMEXE
 40
1.0
  9
$DIMTP
 40
0.0
  9
$DIMTM
 40
0.0
  9
$DIMTXT
 40
3.5
  9
$DIMCEN
 40
2.5
  9
$DIMTSZ
 40
0.0
  9
$DIMTOL
 70
     0
  9
$DIMLIM
 70
     0
  9
$DIMTIH
 70
     1
  9
$DIMTOH
 70
     1
  9
$DIMSE1
 70
     0
  9
$DIMSE2
 70
     0
  9
$DIMTAD
 70
     1
  9
$DIMZIN
 70
     0
  9
$DIMBLK
  1

  9
$DIMASO
 70
     1
  9
$DIMSHO
 70
     1
  9
$DIMPOST
  1

  9
$DIMAPOST
  1

  9
$DIMALT
 70
     0
  9
$DIMALTD
 70
     3
  9
$DIMALTF
 40
0.0393700787
  9
$DIMLFAC
 40
1.0
  9
$DIMTOFL
 70
     1
  9
$DIMTVP
 40
0.0
  9
$DIMTIX
 70
     0
  9
$DIMSOXD
 70
     0
  9
$DIMSAH
 70
     0
  9
$DIMBLK1
  1

  9
$DIMBLK2
  1

  9
$DIMSTYLE
  2
ISO-25
  9
$DIMCLRD
 70
     0
  9
$DIMCLRE
 70
     0
  9
$DIMCLRT
 70
     0
  9
$DIMTFAC
 40
1.0
  9
$DIMGAP
 40
1.524
  9
$DIMJUST
 70
     0
  9
$DIMSD1
 70
     0
  9
$DIMSD2
 70
     0
  9
$DIMTOLJ
 70
     0
  9
$DIMTZIN
 70
     0
  9
$DIMALTZ
 70
     0
  9
$DIMALTTZ
 70
     0
  9
$DIMUPT
 70
     0
  9
$DIMDEC
 70
     3
  9
$DIMTDEC
 70
     3
  9
$DIMALTU
 70
     2
  9
$DIMALTTD
 70
     3
  9
$DIMTXSTY
  7
Standard
  9
$DIMAUNIT
 70
     0
  9
$DIMADEC
 70
     2
  9
$DIMALTRND
 40
0.0
  9
$DIMAZIN
 70
     0
  9
$DIMDSEP
 70
    44
  9
$DIMATFIT
 70
     3
  9
$DIMFRAC
 70
     0
  9
$DIMLDRBLK
  1

  9
$DIMLUNIT
 70
     2
  9
$DIMLWD
 70
    -2
  9
$DIMLWE
 70
    -2
  9
$DIMTMOVE
 70
     0
  9
$LUNITS
 70
     2
  9
$LUPREC
 70
     8
  9
$SKETCHINC
 40
1.0
  9
$FILLETRAD
 40
10.0
  9
$AUNITS
 70
     0
  9
$AUPREC
 70
     8
  9
$MENU
  1
.
  9
$ELEVATION
 40
0.0
  9
$PELEVATION
 40
0.0
  9
$THICKNESS
 40
0.0
  9
$LIMCHECK
 70
     0
  9
$CHAMFERA
 40
10.0
  9
$CHAMFERB
 40
10.0
  9
$CHAMFERC
 40
20.0
  9
$CHAMFERD
 40
0.0
  9
$SKPOLY
 70
     0
  9
$TDCREATE
 40
2457053.618906678
  9
$TDUCREATE
 40
2457053.618906678
  9
$TDUPDATE
 40
2457053.618907407
  9
$TDUUPDATE
 40
2457053.618907407
  9
$TDINDWG
 40
0.0000000116
  9
$TDUSRTIMER
 40
0.0000000116
  9
$USRTIMER
 70
     1
  9
$ANGBASE
 50
0.0
  9
$ANGDIR
 70
     0
  9
$PDMODE
 70
     0
  9
$PDSIZE
 40
-1.0
  9
$PLINEWID
 40
0.0
  9
$SPLFRAME
 70
     0
  9
$SPLINETYPE
 70
     6
  9
$SPLINESEGS
 70
     8
  9
$HANDSEED
  5
27D
  9
$SURFTAB1
 70
     6
  9
$SURFTAB2
 70
     6
  9
$SURFTYPE
 70
     6
  9
$SURFU
 70
     6
  9
$SURFV
 70
     6
  9
$UCSBASE
  2

  9
$UCSNAME
  2

  9
$UCSORG
 10
0.0
 20
0.0
 30
0.0
  9
$UCSXDIR
 10
1.0
 20
0.0
 30
0.0
  9
$UCSYDIR
 10
0.0
 20
1.0
 30
0.0
  9
$UCSORTHOREF
  2

  9
$UCSORTHOVIEW
 70
     0
  9
$UCSORGTOP
 10
0.0
 20
0.0
 30
0.0
  9
$UCSORGBOTTOM
 10
0.0
 20
0.0
 30
0.0
  9
$UCSORGLEFT
 10
0.0
 20
0.0
 30
0.0
  9
$UCSORGRIGHT
 10
0.0
 20
0.0
 30
0.0
  9
$UCSORGFRONT
 10
0.0
 20
0.0
 30
0.0
  9
$UCSORGBACK
 10
0.0
 20
0.0
 30
0.0
  9
$PUCSBASE
  2

  9
$PUCSNAME
  2

  9
$PUCSORG
 10
0.0
 20
0.0
 30
0.0
  9
$PUCSXDIR
 10
1.0
 20
0.0
 30
0.0
  9
$PUCSYDIR
 10
0.0
 20
1.0
 30
0.0
  9
$PUCSORTHOREF
  2

  9
$PUCSORTHOVIEW
 70
     0
  9
$PUCSORGTOP
 10
0.0
 20
0.0
 30
0.0
  9
$PUCSORGBOTTOM
 10
0.0
 20
0.0
 30
0.0
  9
$PUCSORGLEFT
 10
0.0
 20
0.0
 30
0.0
  9
$PUCSORGRIGHT
 10
0.0
 20
0.0
 30
0.0
  9
$PUCSORGFRONT
 10
0.0
 20
0.0
 30
0.0
  9
$PUCSORGBACK
 10
0.0
 20
0.0
 30
0.0
  9
$USERI1
 70
     0
  9
$USERI2
 70
     0
  9
$USERI3
 70
     0
  9
$USERI4
 70
     0
  9
$USERI5
 70
     0
  9
$USERR1
 40
0.0
  9
$USERR2
 40
0.0
  9
$USERR3
 40
0.0
  9
$USERR4
 40
0.0
  9
$USERR5
 40
0.0
  9
$WORLDVIEW
 70
     1
  9
$SHADEDGE
 70
     3
  9
$SHADEDIF
 70
    70
  9
$TILEMODE
 70
     1
  9
$MAXACTVP
 70
    64
  9
$PINSBASE
 10
0.0
 20
0.0
 30
0.0
  9
$PLIMCHECK
 70
     0
  9
$PEXTMIN
 10
1.0000000000E+20
 20
1.0000000000E+20
 30
1.0000000000E+20
  9
$PEXTMAX
 10
-1.0000000000E+20
 20
-1.0000000000E+20
 30
-1.0000000000E+20
  9
$PLIMMIN
 10
0.0
 20
0.0
  9
$PLIMMAX
 10
420.0
 20
297.0
  9
$UNITMODE
 70
     0
  9
$VISRETAIN
 70
     1
  9
$PLINEGEN
 70
     0
  9
$PSLTSCALE
 70
     1
  9
$TREEDEPTH
 70
  3020
  9
$CMLSTYLE
  2
Standard
  9
$CMLJUST
 70
     0
  9
$CMLSCALE
 40
20.0
  9
$PROXYGRAPHICS
 70
     1
  9
$MEASUREMENT
 70
     1
  9
$CELWEIGHT
370
    -1
  9
$ENDCAPS
280
     0
  9
$JOINSTYLE
280
     0
  9
$LWDISPLAY
290
     1
  9
$INSUNITS
 70
     4
  9
$HYPERLINKBASE
  1

  9
$STYLESHEET
  1

  9
$XEDIT
290
     1
  9
$CEPSNTYPE
380
     0
  9
$PSTYLEMODE
290
     1
  9
$FINGERPRINTGUID
  2
{78B368CC-284E-4173-A3B4-835C5AE855C3}
  9
$VERSIONGUID
  2
{FAEB1C32-E019-11D5-929B-00C0DF256EC4}
  9
$EXTNAMES
290
     1
  9
$PSVPSCALE
 40
0.0
  9
$OLESTARTUP
290
     0
  0
ENDSEC
  0
SECTION
  2
CLASSES
  0
CLASS
  1
ACDBDICTIONARYWDFLT
  2
AcDbDictionaryWithDefault
  3
ObjectDBX Classes
 90
        0
280
     0
281
     0
  0
CLASS
  1
VISUALSTYLE
  2
AcDbVisualStyle
  3
ObjectDBX Classes
 90
     4095
280
     0
281
     0
  0
CLASS
  1
MATERIAL
  2
AcDbMaterial
  3
ObjectDBX Classes
 90
     1153
280
     0
281
     0
  0
CLASS
  1
ACDBPLACEHOLDER
  2
AcDbPlaceHolder
  3
ObjectDBX Classes
 90
        0
280
     0
281
     0
  0
CLASS
  1
LAYOUT
  2
AcDbLayout
  3
ObjectDBX Classes
 90
        0
280
     0
281
     0
  0
ENDSEC
  0
SECTION
  2
TABLES
  0
TABLE
  2
VPORT
  5
8
330
0
100
AcDbSymbolTable
 70
     1
  0
VPORT
  5
29
330
8
100
AcDbSymbolTableRecord
100
AcDbViewportTableRecord
  2
*Active
 70
     0
 10
0.0
 20
0.0
 11
1.0
 21
1.0
 12
500.0
 22
500.0
 13
0.0
 23
0.0
 14
10.0
 24
10.0
 15
10.0
 25
10.0
 16
0.0
 26
0.0
 36
1.0
 17
0.0
 27
0.0
 37
0.0
 40
1000.0
 41
1.0
 42
50.0
 43
0.0
 44
0.0
 50
0.0
 51
0.0
 71
     0
 72
  2000
 73
     1
 74
     3
 75
     0
 76
     0
 77
     0
 78
     0
281
     0
 65
     1
110
0.0
120
0.0
130
0.0
111
1.0
121
0.0
131
0.0
112
0.0
122
1.0
132
0.0
 79
     0
146
0.0
  0
ENDTAB
  0
TABLE
  2
LTYPE
  5
5
330
0
100
AcDbSymbolTable
 70
     6
  0
LTYPE
  5
14
330
5
100
AcDbSymbolTableRecord
100
AcDbLinetypeTableRecord
  2
ByBlock
 70
     0
  3

 72
    65
 73
     0
 40
0.0
  0
LTYPE
  5
15
330
5
100
AcDbSymbolTableRecord
100
AcDbLinetypeTableRecord
  2
ByLayer
 70
     0
  3

 72
    65
 73
     0
 40
0.0
  0
LTYPE
  5
16
330
5
100
AcDbSymbolTableRecord
100
AcDbLinetypeTableRecord
  2
Continuous
 70
     0
  3
Solid line
 72
    65
 73
     0
 40
0.0
  0
LTYPE
  5
3F
330
5
100
AcDbSymbolTableRecord
100
AcDbLinetypeTableRecord
  2
HIDDEN
 70
     0
  3
Hidden __ __ __ __ __ __ __ __ __ __ __ __ __ __
 72
    65
 73
     2
 40
1.905
 49
1.27
 74
     0
 49
-0.635
 74
     0
  0
LTYPE
  5
40
330
5
100
AcDbSymbolTableRecord
100
AcDbLinetypeTableRecord
  2
PHANTOM
 70
     0
  3
Phantom ______  __  __  ______  __  __  ______
 72
    65
 73
     6
 40
12.7
 49
6.35
 74
     0
 49
-1.27
 74
     0
 49
1.27
 74
     0
 49
-1.27
 74
     0
 49
1.27
 74
     0
 49
-1.27
 74
     0
  0
LTYPE
  5
41
330
5
100
AcDbSymbolTableRecord
100
AcDbLinetypeTableRecord
  2
CENTER
 70
     0
  3
Center ____ _ ____ _ ____ _ ____ _ ____ _ ____
 72
    65
 73
     4
 40
10.16
 49
6.35
 74
     0
 49
-1.27
 74
     0
 49
1.27
 74
     0
 49
-1.27
 74
     0
  0
LTYPE
  5
42
330
5
100
AcDbSymbolTableRecord
100
AcDbLinetypeTableRecord
  2
CENTERX2
 70
     0
  3
Center (2x) ________  __  ________  __  _____
 72
    65
 73
     4
 40
20.32
 49
12.7
 74
     0
 49
-2.54
 74
     0
 49
2.54
 74
     0
 49
-2.54
 74
     0
  0
LTYPE
  5
43
330
5
100
AcDbSymbolTableRecord
100
AcDbLinetypeTableRecord
  2
DOT2
 70
     0
  3
Dot (.5x) ........................................
 72
    65
 73
     2
 40
0.635
 49
0.0
 74
     0
 49
-0.635
 74
     0
  0
ENDTAB
  0
TABLE
  2
LAYER
  5
2
330
0
100
AcDbSymbolTable
 70
     1
  0
LAYER
  5
10
330
2
100
AcDbSymbolTableRecord
100
AcDbLayerTableRecord
  2
0
 70
     0
 62
     7
  6
Continuous
370
    -3
390
F
  0
ENDTAB
  0
TABLE
  2
STYLE
  5
3
330
0
100
AcDbSymbolTable
 70
     1
  0
STYLE
  5
11
330
3
100
AcDbSymbolTableRecord
100
AcDbTextStyleTableRecord
  2
Standard
 70
     0
 40
0.0
 41
1.0
 50
0.0
 71
     0
 42
3.5
  3
txt
  4

  0
ENDTAB
  0
TABLE
  2
VIEW
  5
6
330
0
100
AcDbSymbolTable
 70
     0
  0
ENDTAB
  0
TABLE
  2
UCS
  5
7
330
0
100
AcDbSymbolTable
 70
     0
  0
ENDTAB
  0
TABLE
  2
APPID
  5
9
330
0
100
AcDbSymbolTable
 70
     1
  0
APPID
  5
12
330
9
100
AcDbSymbolTableRecord
100
AcDbRegAppTableRecord
  2
ACAD
 70
     0
  0
ENDTAB
  0
TABLE
  2
DIMSTYLE
  5
A
330
0
100
AcDbSymbolTable
 70
     1
100
AcDbDimStyleTable
  0
DIMSTYLE
105
27
330
A
100
AcDbSymbolTableRecord
100
AcDbDimStyleTableRecord
  2
ISO-25
 70
     0
 41
2.5
 42
0.625
 43
3.75
 44
1.25
 73
     0
 74
     0
 77
     1
 78
     8
140
2.5
141
2.5
143
0.0393700787
147
0.625
171
     3
172
     1
178
     0
271
     2
272
     2
274
     3
278
    44
283
     0
284
     8
340
11
  0
ENDTAB
  0
TABLE
  2
BLOCK_RECORD
  5
1
330
0
100
AcDbSymbolTable
 70
     1
  0
BLOCK_RECORD
  5
1F
330
1
100
AcDbSymbolTableRecord
100
AcDbBlockTableRecord
  2
*Model_Space
340
22
  0
BLOCK_RECORD
  5
1B
330
1
100
AcDbSymbolTableRecord
100
AcDbBlockTableRecord
  2
*Paper_Space
340
1E
  0
BLOCK_RECORD
  5
23
330
1
100
AcDbSymbolTableRecord
100
AcDbBlockTableRecord
  2
*Paper_Space0
340
26
  0
ENDTAB
  0
ENDSEC
  0
SECTION
  2
BLOCKS
  0
BLOCK
  5
20
330
1F
100
AcDbEntity
  8
0
100
AcDbBlockBegin
  2
*Model_Space
 70
     0
 10
0.0
 20
0.0
 30
0.0
  3
*Model_Space
  1

  0
ENDBLK
  5
21
330
1F
100
AcDbEntity
  8
0
100
AcDbBlockEnd
  0
BLOCK
  5
1C
330
1B
100
AcDbEntity
 67
     1
  8
0
100
AcDbBlockBegin
  2
*Paper_Space
 70
     0
 10
0.0
 20
0.0
 30
0.0
  3
*Paper_Space
  1

  0
ENDBLK
  5
1D
330
1B
100
AcDbEntity
 67
     1
  8
0
100
AcDbBlockEnd
  0
BLOCK
  5
24
330
23
100
AcDbEntity
  8
0
100
AcDbBlockBegin
  2
*Paper_Space0
 70
     0
 10
0.0
 20
0.0
 30
0.0
  3
*Paper_Space0
  1

  0
ENDBLK
  5
25
330
23
100
AcDbEntity
  8
0
100
AcDbBlockEnd
  0
ENDSEC
  0
SECTION
  2
ENTITIES
  0
LINE
  5
44
330
1F
100
AcDbEntity
  8
0
  6
Continuous
 62
     7
100
AcDbLine
 10
308.4798099763
 20
699.225415677
 30
0.0
 11
308.4798099763
 21
753.425415677
 31
0.0
  0
LINE
  5
45
330
1F
100
AcDbEntity
  8
0
  6
Continuous
 62
     7
100
AcDbLine
 10
308.4798099763
 20
753.425415677
 30
0.0
 11
308.4798099763
 21
878.6771518454
 31
0.0
  0
LINE
  5
46
330
1F
100
AcDbEntity
  8
0
  6
Continuous
 62
     7
370
    15
100
AcDbLine
 10
583.0736421792
 20
617.0211621243
 30
0.0
 11
658.0736421792
 21
617.0211621243
 31
0.0
  0
SPLINE
  5
47
330
1F
100
AcDbEntity
  8
0
  6
Continuous
 62
     7
370
    15
100
AcDbSpline
210
0.0
220
0.0
230
1.0
 70
     8
 71
     3
 72
    12
 73
     8
 74
     0
 42
0.00000001
 43
0.00000001
 12
1.0
 22
0.0
 32
0.0
 13
1.0
 23
0.0
 33
0.0
 40
0.0
 40
0.0
 40
0.0
 40
0.0
 40
0.1763962382128101
 40
0.5365638846233299
 40
0.7577814011218107
 40
0.9056519226795466
 40
1.0
 40
1.0
 40
1.0
 40
1.0
 10
582.0736421791605
 20
615.5322291441206
 30
0.0
 10
582.0793403187852
 20
615.6471531595589
 30
0.0
 10
582.0966729782747
 20
615.9967302071472
 30
0.0
 10
582.2706060309351
 20
616.4779172280377
 30
0.0
 10
582.5830904476732
 20
616.8443604722793
 30
0.0
 10
582.8536078022559
 20
617.000543454167
 30
0.0
 10
583.0119610268854
 20
617.0153821941573
 30
0.0
 10
583.0736421791605
 20
617.0211621243297
 30
0.0
  0
SPLINE
  5
48
330
1F
100
AcDbEntity
  8
0
  6
Continuous
 62
     7
370
    15
100
AcDbSpline
210
0.0
220
0.0
230
1.0
 70
     8
 71
     3
 72
    12
 73
     8
 74
     0
 42
0.00000001
 43
0.00000001
 12
1.0
 22
0.0
 32
0.0
 13
1.0
 23
0.0
 33
0.0
 40
0.0
 40
0.0
 40
0.0
 40
0.0
 40
0.0715055978010938
 40
0.2076814571357867
 40
0.3963017263578884
 40
0.6631738080232441
 40
1.0
 40
1.0
 40
1.0
 40
1.0
 10
658.0736421791604
 20
617.0211621243295
 30
0.0
 10
658.1203583487053
 20
617.0178565510392
 30
0.0
 10
658.2560411827941
 20
617.0082558162895
 30
0.0
 10
658.4964172093553
 20
616.8931835226173
 30
0.0
 10
658.7740071133272
 20
616.6186295205406
 30
0.0
 10
659.0192681358197
 20
616.1485212119511
 30
0.0
 10
659.0541694247236
 20
615.7529393095028
 30
0.0
 10
659.0736421791605
 20
615.5322291441204
 30
0.0
  0
LINE
  5
49
330
1F
100
AcDbEntity
  8
0
  6
Continuous
 62
     7
370
    15
100
AcDbLine
 10
399.9798099762
 20
50.725415677
 30
0.0
 11
399.9798099762
 21
54.725415677
 31
0.0
  0
LINE
  5
4A
330
1F
100
AcDbEntity
  8
0
  6
Continuous
 62
     7
370
    15
100
AcDbLine
 10
342.9798099762
 20
54.725415677
 30
0.0
 11
342.9798099762
 21
50.725415677
 31
0.0
  0
ARC
  5
4B
330
1F
100
AcDbEntity
  8
0
  6
Continuous
 62
     7
370
    15
100
AcDbCircle
 10
397.9798099762
 20
50.725415677
 30
0.0
 40
2.0
100
AcDbArc
 50
270.0
 51
0.0
  0
ARC
  5
4C
330
1F
100
AcDbEntity
  8
0
  6
Continuous
 62
     7
370
    15
100
AcDbCircle
 10
344.9798099762
 20
50.725415677
 30
0.0
 40
2.0
100
AcDbArc
 50
180.0
 51
270.0
  0
ARC
  5
4D
330
1F
100
AcDbEntity
  8
0
  6
Continuous
 62
     7
370
    15
100
AcDbCircle
 10
671.9798099762
 20
50.725415677
 30
0.0
 40
2.0
100
AcDbArc
 50
270.0
 51
0.0
  0
ARC
  5
4E
330
1F
100
AcDbEntity
  8
0
  6
Continuous
 62
     7
370
    15
100
AcDbCircle
 10
618.9798099762
 20
50.725415677
 30
0.0
 40
2.0
100
AcDbArc
 50
180.0
 51
270.0
  0
LINE
  5
4F
330
1F
100
AcDbEntity
  8
0
  6
Continuous
 62
     7
370
    15
100
AcDbLine
 10
673.9798099762
 20
50.725415677
 30
0.0
 11
673.9798099762
 21
54.725415677
 31
0.0
  0
LINE
  5
50
330
1F
100
AcDbEntity
  8
0
  6
Continuous
 62
     7
370
    15
100
AcDbLine
 10
616.9798099762
 20
54.725415677
 30
0.0
 11
616.9798099762
 21
50.725415677
 31
0.0
  0
LINE
  5
51
330
1F
100
AcDbEntity
  8
0
  6
Continuous
 62
     7
370
    15
100
AcDbLine
 10
673.7798099762
 20
54.725415677
 30
0.0
 11
673.7798099762
 21
122.725415677
 31
0.0
  0
LINE
  5
52
330
1F
100
AcDbEntity
  8
0
  6
Continuous
 62
     7
370
    15
100
AcDbLine
 10
617.1798099762
 20
122.725415677
 30
0.0
 11
617.1798099762
 21
54.725415677
 31
0.0
  0
LINE
  5
53
330
1F
100
AcDbEntity
  8
0
  6
Continuous
 62
     7
370
    15
100
AcDbLine
 10
399.7798099762
 20
54.725415677
 30
0.0
 11
399.7798099762
 21
122.725415677
 31
0.0
  0
LINE
  5
54
330
1F
100
AcDbEntity
  8
0
  6
Continuous
 62
     7
370
    15
100
AcDbLine
 10
343.1798099762
 20
122.725415677
 30
0.0
 11
343.1798099762
 21
54.725415677
 31
0.0
  0
ARC
  5
55
330
1F
100
AcDbEntity
  8
0
  6
Continuous
 62
     7
370
    15
100
AcDbCircle
 10
404.8798099762
 20
215.225415677
 30
0.0
 40
1.5
100
AcDbArc
 50
90.0
 51
180.0
  0
ARC
  5
56
330
1F
100
AcDbEntity
  8
0
  6
Continuous
 62
     7
370
    15
100
AcDbCircle
 10
338.0798099762
 20
215.225415677
 30
0.0
 40
1.499999999999943
100
AcDbArc
 50
0.0
 51
90.0
  0
LINE
  5
57
330
1F
100
AcDbEntity
  8
0
  6
Continuous
 62
     7
370
    15
100
AcDbLine
 10
403.3798099762
 20
128.7579816226
 30
0.0
 11
403.3798099762
 21
215.225415677
 31
0.0
  0
LINE
  5
58
330
1F
100
AcDbEntity
  8
0
  6
Continuous
 62
     7
370
    15
100
AcDbLine
 10
339.5798099762
 20
215.225415677
 30
0.0
 11
339.5798099762
 21
128.7579816226
 31
0.0
  0
ARC
  5
59
330
1F
100
AcDbEntity
  8
0
  6
Continuous
 62
     7
370
    15
100
AcDbCircle
 10
398.6798099762
 20
128.7579816226
 30
0.0
 40
4.699999999999989
100
AcDbArc
 50
350.5402980318
 51
0.0
  0
ARC
  5
5A
330
1F
100
AcDbEntity
  8
0
  6
Continuous
 62
     7
370
    15
100
AcDbCircle
 10
344.2798099762
 20
128.7579816226
 30
0.0
 40
4.700000000000045
100
AcDbArc
 50
180.0
 51
189.4597019682
  0
LINE
  5
5B
330
1F
100
AcDbEntity
  8
0
  6
Continuous
 62
     7
370
    15
100
AcDbLine
 10
339.6437232032
 20
127.9855183981
 30
0.0
 11
340.5201597559
 21
122.725415677
 31
0.0
  0
LINE
  5
5C
330
1F
100
AcDbEntity
  8
0
  6
Continuous
 62
     7
370
    15
100
AcDbLine
 10
402.4394601966
 20
122.725415677
 30
0.0
 11
403.3158967492
 21
127.9855183981
 31
0.0
  0
ARC
  5
5D
330
1F
100
AcDbEntity
  8
0
  6
Continuous
 62
     7
370
    15
100
AcDbCircle
 10
678.8798099762
 20
215.225415677
 30
0.0
 40
1.5
100
AcDbArc
 50
90.0
 51
180.0
  0
ARC
  5
5E
330
1F
100
AcDbEntity
  8
0
  6
Continuous
 62
     7
370
    15
100
AcDbCircle
 10
612.0798099762
 20
215.225415677
 30
0.0
 40
1.499999999999943
100
AcDbArc
 50
0.0
 51
90.0
  0
ARC
  5
5F
330
1F
100
AcDbEntity
  8
0
  6
Continuous
 62
     7
370
    15
100
AcDbCircle
 10
672.6798099762
 20
128.7579816226
 30
0.0
 40
4.699999999999932
100
AcDbArc
 50
350.5402980318
 51
0.0
  0
ARC
  5
60
330
1F
100
AcDbEntity
  8
0
  6
Continuous
 62
     7
370
    15
100
AcDbCircle
 10
618.2798099762
 20
128.7579816226
 30
0.0
 40
4.700000000000045
100
AcDbArc
 50
180.0
 51
189.4597019682
  0
LINE
  5
61
330
1F
100
AcDbEntity
  8
0
  6
Continuous
 62
     7
370
    15
100
AcDbLine
 10
677.3798099762
 20
128.7579816226
 30
0.0
 11
677.3798099762
 21
215.225415677
 31
0.0
  0
LINE
  5
62
330
1F
100
AcDbEntity
  8
0
  6
Continuous
 62
     7
370
    15
100
AcDbLine
 10
613.5798099762
 20
215.225415677
 30
0.0
 11
613.5798099762
 21
128.7579816226
 31
0.0
  0
LINE
  5
63
330
1F
100
AcDbEntity
  8
0
  6
Continuous
 62
     7
370
    15
100
AcDbLine
 10
613.6437232032
 20
127.9855183981
 30
0.0
 11
614.5201597559
 21
122.725415677
 31
0.0
  0
LINE
  5
64
330
1F
100
AcDbEntity
  8
0
  6
Continuous
 62
     7
370
    15
100
AcDbLine
 10
676.4394601966
 20
122.725415677
 30
0.0
 11
677.3158967492
 21
127.9855183981
 31
0.0
  0
SPLINE
  5
65
330
1F
100
AcDbEntity
  8
0
  6
Continuous
 62
     7
370
    15
100
AcDbSpline
210
0.0
220
0.0
230
1.0
 70
     8
 71
     3
 72
    13
 73
     9
 74
     0
 42
0.00000001
 43
0.00000001
 12
1.0
 22
0.0
 32
0.0
 13
1.0
 23
0.0
 33
0.0
 40
0.0
 40
0.0
 40
0.0
 40
0.0
 40
0.0761497760589326
 40
0.2250864180641816
 40
0.4231711252713061
 40
0.6447721882750082
 40
0.904996704715206
 40
1.0
 40
1.0
 40
1.0
 40
1.0
 10
450.8103356729615
 20
206.890808356217
 30
0.0
 10
450.8101171583212
 20
206.8911777841822
 30
0.0
 10
450.8094712643972
 20
206.8922697534792
 30
0.0
 10
450.8195698602418
 20
206.8701542424152
 30
0.0
 10
450.8338817735656
 20
206.8193234780866
 30
0.0
 10
450.8485734143947
 20
206.7331289028124
 30
0.0
 10
450.856733108062
 20
206.6455918847783
 30
0.0
 10
450.8557151927849
 20
206.5902424777979
 30
0.0
 10
450.8554429581724
 20
206.5754396501993
 30
0.0
  0
LINE
  5
66
330
1F
100
AcDbEntity
  8
0
  6
Continuous
 62
     7
370
    15
100
AcDbLine
 10
450.8565349094
 20
206.575415677
 30
0.0
 11
450.8565349094
 21
201.475415677
 31
0.0
  0
ARC
  5
67
330
1F
100
AcDbEntity
  8
0
  6
Continuous
 62
     7
370
    15
100
AcDbCircle
 10
451.1065349094
 20
201.475415677
 30
0.0
 40
0.2500000000000284
100
AcDbArc
 50
180.0
 51
270.0
  0
ARC
  5
68
330
1F
100
AcDbEntity
  8
0
  6
Continuous
 62
     7
370
    15
100
AcDbCircle
 10
457.0668031676
 20
201.475415677
 30
0.0
 40
0.2500000000000284
100
AcDbArc
 50
270.0
 51
0.0
  0
LINE
  5
69
330
1F
100
AcDbEntity
  8
0
  6
Continuous
 62
     7
370
    15
100
AcDbLine
 10
457.3168031676
 20
201.475415677
 30
0.0
 11
457.3168031676
 21
206.575415677
 31
0.0
  0
ARC
  5
6A
330
1F
100
AcDbEntity
  8
0
  6
Continuous
 62
     7
370
    15
100
AcDbCircle
 10
459.9298099762
 20
207.075415677
 30
0.0
 40
0.25
100
AcDbArc
 50
270.0
 51
0.0
  0
ARC
  5
6B
330
1F
100
AcDbEntity
  8
0
  6
Continuous
 62
     7
370
    15
100
AcDbCircle
 10
459.9298099762
 20
207.775415677
 30
0.0
 40
0.25
100
AcDbArc
 50
0.0
 51
90.0
  0
LINE
  5
6C
330
1F
100
AcDbEntity
  8
0
  6
Continuous
 62
     7
370
    15
100
AcDbLine
 10
460.1798099762
 20
207.075415677
 30
0.0
 11
460.1798099762
 21
207.775415677
 31
0.0
  0
LINE
  5
6D
330
1F
100
AcDbEntity
  8
0
  6
Continuous
 62
     7
370
    15
100
AcDbLine
 10
445.6428167849
 20
205.625415677
 30
0.0
 11
445.6428167849
 21
201.475415677
 31
0.0
  0
ARC
  5
6E
330
1F
100
AcDbEntity
  8
0
  6
Continuous
 62
     7
370
    15
100
AcDbCircle
 10
445.8928167849
 20
201.475415677
 30
0.0
 40
0.2500000000000568
100
AcDbArc
 50
180.0
 51
226.1616147494
  0
ARC
  5
6F
330
1F
100
AcDbEntity
  8
0
  6
Continuous
 62
     7
370
    15
100
AcDbCircle
 10
442.7298099762
 20
207.075415677
 30
0.0
 40
1.449999999999989
100
AcDbArc
 50
180.0
 51
270.0
  0
ARC
  5
70
330
1F
100
AcDbEntity
  8
0
  6
Continuous
 62
     7
370
    15
100
AcDbCircle
 10
441.5298099762
 20
212.175415677
 30
0.0
 40
0.2500000000000284
100
AcDbArc
 50
90.0
 51
180.0
  0
LINE
  5
71
330
1F
100
AcDbEntity
  8
0
  6
Continuous
 62
     7
370
    15
100
AcDbLine
 10
441.2798099762
 20
212.175415677
 30
0.0
 11
441.2798099762
 21
207.075415677
 31
0.0
  0
SPLINE
  5
72
330
1F
100
AcDbEntity
  8
0
  6
Continuous
 62
     7
370
    15
100
AcDbSpline
210
0.0
220
0.0
230
1.0
 70
     8
 71
     3
 72
    12
 73
     8
 74
     0
 42
0.00000001
 43
0.00000001
 12
1.0
 22
0.0
 32
0.0
 13
1.0
 23
0.0
 33
0.0
 40
0.0
 40
0.0
 40
0.0
 40
0.0
 40
0.1499323333645665
 40
0.4430087003677772
 40
0.6706957064870213
 40
0.8669292807921003
 40
1.0
 40
1.0
 40
1.0
 40
1.0
 10
444.127910455985
 20
206.8304263212497
 30
0.0
 10
444.108416091044
 20
206.8298145449468
 30
0.0
 10
444.0508156183294
 20
206.8280069146727
 30
0.0
 10
443.9681456195125
 20
206.8688793560291
 30
0.0
 10
443.9009524638174
 20
206.9383199078487
 30
0.0
 10
443.8666715822256
 20
207.0104348327908
 30
0.0
 10
443.865905472635
 20
207.0570819959649
 30
0.0
 10
443.865595890415
 20
207.0759319522967
 30
0.0
  0
LINE
  5
73
330
1F
100
AcDbEntity
  8
0
  6
Continuous
 62
     7
370
    15
100
AcDbLine
 10
443.863076607
 20
207.075415677
 30
0.0
 11
443.863076607
 21
212.175415677
 31
0.0
  0
ARC
  5
74
330
1F
100
AcDbEntity
  8
0
  6
Continuous
 62
     7
370
    15
100
AcDbCircle
 10
443.613076607
 20
212.175415677
 30
0.0
 40
0.25
100
AcDbArc
 50
0.0
 51
90.0
  0
LINE
  5
75
330
1F
100
AcDbEntity
  8
0
  6
Continuous
 62
     7
370
    15
100
AcDbLine
 10
460.4272510151
 20
212.175415677
 30
0.0
 11
460.4272510151
 21
207.075415677
 31
0.0
  0
ARC
  5
76
330
1F
100
AcDbEntity
  8
0
  6
Continuous
 62
     7
370
    15
100
AcDbCircle
 10
460.6772510151
 20
212.175415677
 30
0.0
 40
0.25
100
AcDbArc
 50
90.0
 51
180.0
  0
ARC
  5
77
330
1F
100
AcDbEntity
  8
0
  6
Continuous
 62
     7
370
    15
100
AcDbCircle
 10
460.2298099762
 20
207.075415677
 30
0.0
 40
1.450000000000045
100
AcDbArc
 50
270.0
 51
0.0
  0
ARC
  5
78
330
1F
100
AcDbEntity
  8
0
  6
Continuous
 62
     7
370
    15
100
AcDbCircle
 10
461.4298099762
 20
212.175415677
 30
0.0
 40
0.2500000000000284
100
AcDbArc
 50
0.0
 51
90.0
  0
LINE
  5
79
330
1F
100
AcDbEntity
  8
0
  6
Continuous
 62
     7
370
    15
100
AcDbLine
 10
461.6798099762
 20
207.075415677
 30
0.0
 11
461.6798099762
 21
212.175415677
 31
0.0
  0
LINE
  5
7A
330
1F
100
AcDbEntity
  8
0
  6
Continuous
 62
     7
370
    15
100
AcDbLine
 10
459.0965433455
 20
212.175415677
 30
0.0
 11
459.0965433455
 21
208.025415677
 31
0.0
  0
ARC
  5
7B
330
1F
100
AcDbEntity
  8
0
  6
Continuous
 62
     7
370
    15
100
AcDbCircle
 10
459.3465433455
 20
212.175415677
 30
0.0
 40
0.2500000000000568
100
AcDbArc
 50
90.0
 51
180.0
  0
LINE
  5
7C
330
1F
100
AcDbEntity
  8
0
  6
Continuous
 62
     7
370
    15
100
AcDbLine
 10
446.4798099762
 20
205.625415677
 30
0.0
 11
445.8903512325
 21
205.2850915126
 31
0.0
  0
LINE
  5
7D
330
1F
100
AcDbEntity
  8
0
  6
Continuous
 62
     7
370
    15
100
AcDbLine
 10
445.8903512325
 20
200.7657398413
 30
0.0
 11
446.4798099762
 21
200.425415677
 31
0.0
  0
LINE
  5
7E
330
1F
100
AcDbEntity
  8
0
  6
Continuous
 62
     7
370
    15
100
AcDbLine
 10
456.4798099762
 20
200.425415677
 30
0.0
 11
457.06926872
 21
200.7657398413
 31
0.0
  0
LINE
  5
7F
330
1F
100
AcDbEntity
  8
0
  6
Continuous
 62
     7
370
    15
100
AcDbLine
 10
456.4798099762
 20
208.025415677
 30
0.0
 11
456.6897240948
 21
208.1466096498
 31
0.0
  0
LINE
  5
80
330
1F
100
AcDbEntity
  8
0
  6
Continuous
 62
     7
370
    15
100
AcDbLine
 10
456.6897240948
 20
213.1042217041
 30
0.0
 11
456.4798099762
 21
213.225415677
 31
0.0
  0
LINE
  5
81
330
1F
100
AcDbEntity
  8
0
  6
Continuous
 62
     7
370
    15
100
AcDbLine
 10
446.2698958577
 20
208.1466096498
 30
0.0
 11
446.4798099762
 21
208.025415677
 31
0.0
  0
LINE
  5
82
330
1F
100
AcDbEntity
  8
0
  6
Continuous
 62
     7
370
    15
100
AcDbLine
 10
446.4798099762
 20
213.225415677
 30
0.0
 11
446.2698958577
 21
213.1042217041
 31
0.0
  0
LINE
  5
83
330
1F
100
AcDbEntity
  8
0
  6
Continuous
 62
     7
370
    15
100
AcDbLine
 10
446.2919799287
 20
213.5838594055
 30
0.0
 11
446.4798099762
 21
213.475415677
 31
0.0
  0
LINE
  5
84
330
1F
100
AcDbEntity
  8
0
  6
Continuous
 62
     7
370
    15
100
AcDbLine
 10
456.4798099762
 20
213.475415677
 30
0.0
 11
456.6676400238
 21
213.5838594055
 31
0.0
  0
LINE
  5
85
330
1F
100
AcDbEntity
  8
0
  6
Continuous
 62
     7
370
    15
100
AcDbLine
 10
448.4798099762
 20
213.475415677
 30
0.0
 11
448.4798099762
 21
213.225415677
 31
0.0
  0
LINE
  5
86
330
1F
100
AcDbEntity
  8
0
  6
Continuous
 62
     7
370
    15
100
AcDbLine
 10
454.4798099762
 20
213.225415677
 30
0.0
 11
454.4798099762
 21
213.475415677
 31
0.0
  0
LINE
  5
87
330
1F
100
AcDbEntity
  8
0
  6
Continuous
 62
     7
370
    15
100
AcDbLine
 10
327.9798099762
 20
966.425415677
 30
0.0
 11
327.9798099762
 21
975.925415677
 31
0.0
  0
LINE
  5
88
330
1F
100
AcDbEntity
  8
0
  6
Continuous
 62
     7
370
    15
100
AcDbLine
 10
308.9798099762
 20
975.925415677
 30
0.0
 11
308.9798099762
 21
966.425415677
 31
0.0
  0
ARC
  5
89
330
1F
100
AcDbEntity
  8
0
  6
Continuous
 62
     7
370
    15
100
AcDbCircle
 10
310.9798099762
 20
975.925415677
 30
0.0
 40
2.0
100
AcDbArc
 50
90.0
 51
180.0
  0
ARC
  5
8A
330
1F
100
AcDbEntity
  8
0
  6
Continuous
 62
     7
370
    15
100
AcDbCircle
 10
325.9798099762
 20
975.925415677
 30
0.0
 40
2.0
100
AcDbArc
 50
0.0
 51
90.0
  0
LINE
  5
8B
330
1F
100
AcDbEntity
  8
0
  6
Continuous
 62
     7
370
    15
100
AcDbLine
 10
707.9798099762
 20
966.425415677
 30
0.0
 11
707.9798099762
 21
975.925415677
 31
0.0
  0
LINE
  5
8C
330
1F
100
AcDbEntity
  8
0
  6
Continuous
 62
     7
370
    15
100
AcDbLine
 10
688.9798099762
 20
975.925415677
 30
0.0
 11
688.9798099762
 21
966.425415677
 31
0.0
  0
ARC
  5
8D
330
1F
100
AcDbEntity
  8
0
  6
Continuous
 62
     7
370
    15
100
AcDbCircle
 10
690.9798099762
 20
975.925415677
 30
0.0
 40
2.0
100
AcDbArc
 50
90.0
 51
180.0
  0
ARC
  5
8E
330
1F
100
AcDbEntity
  8
0
  6
Continuous
 62
     7
370
    15
100
AcDbCircle
 10
705.9798099762
 20
975.925415677
 30
0.0
 40
2.0
100
AcDbArc
 50
0.0
 51
90.0
  0
LINE
  5
8F
330
1F
100
AcDbEntity
  8
0
  6
Continuous
 62
     7
370
    15
100
AcDbLine
 10
313.7575074558
 20
695.925415677
 30
0.0
 11
311.7546748181
 21
695.925415677
 31
0.0
  0
LINE
  5
90
330
1F
100
AcDbEntity
  8
0
  6
Continuous
 62
     7
370
    15
100
AcDbLine
 10
313.7575074558
 20
695.925415677
 30
0.0
 11
334.7574863633
 21
695.925415677
 31
0.0
  0
LINE
  5
91
330
1F
100
AcDbEntity
  8
0
  6
Continuous
 62
     7
370
    15
100
AcDbLine
 10
336.754649708
 20
698.425415677
 30
0.0
 11
336.754649708
 21
695.925415677
 31
0.0
  0
LINE
  5
92
330
1F
100
AcDbEntity
  8
0
  6
Continuous
 62
     7
370
    15
100
AcDbLine
 10
336.754649708
 20
695.925415677
 30
0.0
 11
334.7574863633
 21
695.925415677
 31
0.0
  0
LINE
  5
93
330
1F
100
AcDbEntity
  8
0
  6
Continuous
 62
     7
370
    15
100
AcDbLine
 10
311.7249110294
 20
695.925415677
 30
0.0
 11
311.7546748181
 21
695.925415677
 31
0.0
  0
LWPOLYLINE
  5
94
330
1F
100
AcDbEntity
  8
0
  6
Continuous
 62
     7
370
    15
100
AcDbPolyline
 90
        8
 70
   128
 43
0.0
 10
311.7212287155
 20
698.425415677
 10
311.7211143265
 20
698.3925724045
 10
311.7193990711
 20
697.7457029631
 10
311.7178956371
 20
696.8751631453
 10
311.7166618008
 20
695.8144073081
 10
311.7157449777
 20
694.6041997035
 10
311.7151804008
 20
693.2910479311
 10
311.7149897665
 20
691.925415677
  0
LWPOLYLINE
  5
95
330
1F
100
AcDbEntity
  8
0
  6
Continuous
 62
     7
370
    15
100
AcDbPolyline
 90
        9
 70
   128
 43
0.0
 10
311.7249110294
 20
695.925415677
 10
311.7238050052
 20
695.8485567986
 10
311.7227414849
 20
695.620933807
 10
311.7217613389
 20
695.2512941262
 10
311.7209022338
 20
694.7538428017
 10
311.7201971845
 20
694.147696609
 10
311.7196732856
 20
693.4561494064
 10
311.7193506702
 20
692.705776965
 10
311.7192417363
 20
691.925415677
  0
LWPOLYLINE
  5
96
330
1F
100
AcDbEntity
  8
0
  6
Continuous
 62
     7
370
    15
100
AcDbPolyline
 90
        9
 70
   128
 43
0.0
 10
336.7192166262
 20
691.925415677
 10
336.7193255601
 20
692.705776965
 10
336.7196481755
 20
693.4561494064
 10
336.7201720744
 20
694.147696609
 10
336.7208771237
 20
694.7538428017
 10
336.7217362288
 20
695.2512941262
 10
336.7227163748
 20
695.620933807
 10
336.7237798951
 20
695.8485567986
 10
336.7248859193
 20
695.925415677
  0
LINE
  5
97
330
1F
100
AcDbEntity
  8
0
  6
Continuous
 62
     7
370
    15
100
AcDbLine
 10
336.7192166262
 20
691.5763207708
 30
0.0
 11
336.7192166262
 21
691.925415677
 31
0.0
  0
LINE
  5
98
330
1F
100
AcDbEntity
  8
0
  6
Continuous
 62
     7
370
    15
100
AcDbLine
 10
337.4001374266
 20
690.3612268201
 30
0.0
 11
336.7192166262
 21
691.5763207708
 31
0.0
  0
LINE
  5
99
330
1F
100
AcDbEntity
  8
0
  6
Continuous
 62
     7
370
    15
100
AcDbLine
 10
311.7192417363
 20
691.925415677
 30
0.0
 11
311.7192417363
 21
678.6330420048
 31
0.0
  0
LINE
  5
9A
330
1F
100
AcDbEntity
  8
0
  6
Continuous
 62
     7
370
    15
100
AcDbLine
 10
311.7149897665
 20
691.925415677
 30
0.0
 11
311.7149897665
 21
678.623675485
 31
0.0
  0
LINE
  5
9B
330
1F
100
AcDbEntity
  8
0
  6
Continuous
 62
     7
370
    15
100
AcDbLine
 10
582.0736421792
 20
615.5322291441
 30
0.0
 11
582.0736421792
 21
591.5587125332
 31
0.0
  0
LINE
  5
9C
330
1F
100
AcDbEntity
  8
0
  6
Continuous
 62
     7
370
    15
100
AcDbLine
 10
659.0736421792
 20
591.5587125332
 30
0.0
 11
659.0736421792
 21
615.5322291441
 31
0.0
  0
ARC
  5
9D
330
1F
100
AcDbEntity
  8
0
  6
Continuous
 62
     7
370
    15
100
AcDbCircle
 10
576.5736421792
 20
620.0063693552
 30
0.0
 40
3.000000000000114
100
AcDbArc
 50
90.0
 51
180.0
  0
LINE
  5
9E
330
1F
100
AcDbEntity
  8
0
  6
Continuous
 62
     7
370
    15
100
AcDbLine
 10
573.5736421792
 20
620.0063693552
 30
0.0
 11
573.5736421792
 21
585.0063693552
 31
0.0
  0
LINE
  5
9F
330
1F
100
AcDbEntity
  8
0
  6
Continuous
 62
     7
370
    15
100
AcDbLine
 10
576.5736421792
 20
623.0063693552
 30
0.0
 11
664.5736421792
 21
623.0063693552
 31
0.0
  0
ARC
  5
A0
330
1F
100
AcDbEntity
  8
0
  6
Continuous
 62
     7
370
    15
100
AcDbCircle
 10
576.5736421792
 20
585.0063693552
 30
0.0
 40
3.0
100
AcDbArc
 50
180.0
 51
270.0
  0
LINE
  5
A1
330
1F
100
AcDbEntity
  8
0
  6
Continuous
 62
     7
370
    15
100
AcDbLine
 10
576.5736421792
 20
582.0063693552
 30
0.0
 11
664.5736421792
 21
582.0063693552
 31
0.0
  0
ARC
  5
A2
330
1F
100
AcDbEntity
  8
0
  6
Continuous
 62
     7
370
    15
100
AcDbCircle
 10
664.5736421792
 20
620.0063693552
 30
0.0
 40
3.000000000000114
100
AcDbArc
 50
0.0
 51
90.0
  0
LINE
  5
A3
330
1F
100
AcDbEntity
  8
0
  6
Continuous
 62
     7
370
    15
100
AcDbLine
 10
667.5736421792
 20
620.0063693552
 30
0.0
 11
667.5736421792
 21
585.0063693552
 31
0.0
  0
ARC
  5
A4
330
1F
100
AcDbEntity
  8
0
  6
Continuous
 62
     7
370
    15
100
AcDbCircle
 10
664.5736421792
 20
585.0063693552
 30
0.0
 40
3.000000000000114
100
AcDbArc
 50
270.0
 51
0.0
  0
ARC
  5
A5
330
1F
100
AcDbEntity
  8
0
  6
Continuous
 62
     7
370
    15
100
AcDbCircle
 10
329.928499644
 20
670.3612268201
 30
0.0
 40
20.0
100
AcDbArc
 50
90.0
 51
180.0
  0
LINE
  5
A6
330
1F
100
AcDbEntity
  8
0
  6
Continuous
 62
     7
370
    15
100
AcDbLine
 10
309.928499644
 20
670.3612268201
 30
0.0
 11
309.928499644
 21
240.3612268201
 31
0.0
  0
LWPOLYLINE
  5
A7
330
1F
100
AcDbEntity
  8
0
  6
Continuous
 62
     7
370
    15
100
AcDbPolyline
 90
       17
 70
   128
 43
0.0
 10
310.1483106603
 20
290.3612268201
 10
310.1554815677
 20
289.6723966418
 10
310.1759025843
 20
289.0884346139
 10
310.2064647954
 20
288.6982436615
 10
310.2425153815
 20
288.5612268201
 10
310.2785659676
 20
288.6982436615
 10
310.3091281787
 20
289.0884346139
 10
310.3295491953
 20
289.6723966418
 10
310.3367201027
 20
290.3612268201
 10
310.3295491953
 20
291.0500569983
 10
310.3091281787
 20
291.6340190262
 10
310.2785659676
 20
292.0242099786
 10
310.2425153815
 20
292.1612268201
 10
310.2064647954
 20
292.0242099786
 10
310.1759025843
 20
291.6340190262
 10
310.1554815677
 20
291.0500569983
 10
310.1483106603
 20
290.3612268201
  0
LWPOLYLINE
  5
A8
330
1F
100
AcDbEntity
  8
0
  6
Continuous
 62
     7
370
    15
100
AcDbPolyline
 90
       17
 70
   128
 43
0.0
 10
310.1483106603
 20
455.3612268201
 10
310.1554815677
 20
454.6723966418
 10
310.1759025843
 20
454.0884346139
 10
310.2064647954
 20
453.6982436615
 10
310.2425153815
 20
453.5612268201
 10
310.2785659676
 20
453.6982436615
 10
310.3091281787
 20
454.0884346139
 10
310.3295491953
 20
454.6723966418
 10
310.3367201027
 20
455.3612268201
 10
310.3295491953
 20
456.0500569983
 10
310.3091281787
 20
456.6340190262
 10
310.2785659676
 20
457.0242099786
 10
310.2425153815
 20
457.1612268201
 10
310.2064647954
 20
457.0242099786
 10
310.1759025843
 20
456.6340190262
 10
310.1554815677
 20
456.0500569983
 10
310.1483106603
 20
455.3612268201
  0
LWPOLYLINE
  5
A9
330
1F
100
AcDbEntity
  8
0
  6
Continuous
 62
     7
370
    15
100
AcDbPolyline
 90
       17
 70
   128
 43
0.0
 10
310.1483106603
 20
620.3612268201
 10
310.1554815677
 20
619.6723966418
 10
310.1759025843
 20
619.0884346139
 10
310.2064647954
 20
618.6982436615
 10
310.2425153815
 20
618.5612268201
 10
310.2785659676
 20
618.6982436615
 10
310.3091281787
 20
619.0884346139
 10
310.3295491953
 20
619.6723966418
 10
310.3367201027
 20
620.3612268201
 10
310.3295491953
 20
621.0500569983
 10
310.3091281787
 20
621.6340190262
 10
310.2785659676
 20
622.0242099786
 10
310.2425153815
 20
622.1612268201
 10
310.2064647954
 20
622.0242099786
 10
310.1759025843
 20
621.6340190262
 10
310.1554815677
 20
621.0500569983
 10
310.1483106603
 20
620.3612268201
  0
LWPOLYLINE
  5
AA
330
1F
100
AcDbEntity
  8
0
  6
Continuous
 62
     7
370
    15
100
AcDbPolyline
 90
       17
 70
   128
 43
0.0
 10
311.4830035579
 20
657.925415677
 10
311.4764302261
 20
657.2939880136
 10
311.4577109608
 20
656.758689488
 10
311.4296956006
 20
656.4010144483
 10
311.3966492301
 20
656.275415677
 10
311.3636028595
 20
656.4010144483
 10
311.3355874993
 20
656.758689488
 10
311.3168682341
 20
657.2939880136
 10
311.3102949023
 20
657.925415677
 10
311.3168682341
 20
658.5568433404
 10
311.3355874993
 20
659.0921418659
 10
311.3636028595
 20
659.4498169056
 10
311.3966492301
 20
659.575415677
 10
311.4296956006
 20
659.4498169056
 10
311.4577109608
 20
659.0921418659
 10
311.4764302261
 20
658.5568433404
 10
311.4830035579
 20
657.925415677
  0
LWPOLYLINE
  5
AB
330
1F
100
AcDbEntity
  8
0
  6
Continuous
 62
     7
370
    15
100
AcDbPolyline
 90
       17
 70
   128
 43
0.0
 10
310.436284433
 20
657.925415677
 10
310.4297111012
 20
657.2939880136
 10
310.410991836
 20
656.758689488
 10
310.3829764758
 20
656.4010144483
 10
310.3499301052
 20
656.275415677
 10
310.3168837347
 20
656.4010144483
 10
310.2888683744
 20
656.758689488
 10
310.2701491092
 20
657.2939880136
 10
310.2635757774
 20
657.925415677
 10
310.2701491092
 20
658.5568433404
 10
310.2888683744
 20
659.0921418659
 10
310.3168837347
 20
659.4498169056
 10
310.3499301052
 20
659.575415677
 10
310.3829764758
 20
659.4498169056
 10
310.410991836
 20
659.0921418659
 10
310.4297111012
 20
658.5568433404
 10
310.436284433
 20
657.925415677
  0
LWPOLYLINE
  5
AC
330
1F
100
AcDbEntity
  8
0
  6
Continuous
 62
     7
370
    15
100
AcDbPolyline
 90
       17
 70
   128
 43
0.0
 10
310.9162874697
 20
643.425415677
 10
310.9097141379
 20
642.7939880136
 10
310.8909948727
 20
642.258689488
 10
310.8629795125
 20
641.9010144483
 10
310.8299331419
 20
641.775415677
 10
310.7968867713
 20
641.9010144483
 10
310.7688714111
 20
642.258689488
 10
310.7501521459
 20
642.7939880136
 10
310.7435788141
 20
643.425415677
 10
310.7501521459
 20
644.0568433404
 10
310.7688714111
 20
644.5921418659
 10
310.7968867713
 20
644.9498169056
 10
310.8299331419
 20
645.075415677
 10
310.8629795125
 20
644.9498169056
 10
310.8909948727
 20
644.5921418659
 10
310.9097141379
 20
644.0568433404
 10
310.9162874697
 20
643.425415677
  0
LWPOLYLINE
  5
AD
330
1F
100
AcDbEntity
  8
0
  6
Continuous
 62
     7
370
    15
100
AcDbPolyline
 90
       17
 70
   128
 43
0.0
 10
311.4830035579
 20
258.9612268201
 10
311.4764302261
 20
258.3297991566
 10
311.4577109609
 20
257.7945006311
 10
311.4296956006
 20
257.4368255914
 10
311.3966492301
 20
257.3112268201
 10
311.3636028595
 20
257.4368255914
 10
311.3355874993
 20
257.7945006311
 10
311.3168682341
 20
258.3297991566
 10
311.3102949023
 20
258.9612268201
 10
311.3168682341
 20
259.5926544835
 10
311.3355874993
 20
260.127953009
 10
311.3636028595
 20
260.4856280487
 10
311.3966492301
 20
260.6112268201
 10
311.4296956006
 20
260.4856280487
 10
311.4577109609
 20
260.127953009
 10
311.4764302261
 20
259.5926544835
 10
311.4830035579
 20
258.9612268201
  0
LWPOLYLINE
  5
AE
330
1F
100
AcDbEntity
  8
0
  6
Continuous
 62
     7
370
    15
100
AcDbPolyline
 90
       17
 70
   128
 43
0.0
 10
310.9162874697
 20
244.4612268201
 10
310.9097141379
 20
243.8297991566
 10
310.8909948727
 20
243.2945006311
 10
310.8629795125
 20
242.9368255914
 10
310.8299331419
 20
242.8112268201
 10
310.7968867713
 20
242.9368255914
 10
310.7688714111
 20
243.2945006311
 10
310.7501521459
 20
243.8297991566
 10
310.7435788141
 20
244.4612268201
 10
310.7501521459
 20
245.0926544835
 10
310.7688714111
 20
245.627953009
 10
310.7968867713
 20
245.9856280487
 10
310.8299331419
 20
246.1112268201
 10
310.8629795125
 20
245.9856280487
 10
310.8909948727
 20
245.627953009
 10
310.9097141379
 20
245.0926544835
 10
310.9162874697
 20
244.4612268201
  0
LWPOLYLINE
  5
AF
330
1F
100
AcDbEntity
  8
0
  6
Continuous
 62
     7
370
    15
100
AcDbPolyline
 90
       17
 70
   128
 43
0.0
 10
310.436284433
 20
258.9612268201
 10
310.4297111012
 20
258.3297991566
 10
310.410991836
 20
257.7945006311
 10
310.3829764758
 20
257.4368255914
 10
310.3499301052
 20
257.3112268201
 10
310.3168837347
 20
257.4368255914
 10
310.2888683744
 20
257.7945006311
 10
310.2701491092
 20
258.3297991566
 10
310.2635757774
 20
258.9612268201
 10
310.2701491092
 20
259.5926544835
 10
310.2888683744
 20
260.127953009
 10
310.3168837347
 20
260.4856280487
 10
310.3499301052
 20
260.6112268201
 10
310.3829764758
 20
260.4856280487
 10
310.410991836
 20
260.127953009
 10
310.4297111012
 20
259.5926544835
 10
310.436284433
 20
258.9612268201
  0
LINE
  5
B0
330
1F
100
AcDbEntity
  8
0
  6
Continuous
 62
     7
370
    15
100
AcDbLine
 10
685.928499644
 20
690.3612268201
 30
0.0
 11
329.928499644
 21
690.3612268201
 31
0.0
  0
LWPOLYLINE
  5
B1
330
1F
100
AcDbEntity
  8
0
  6
Continuous
 62
     7
370
    15
100
AcDbPolyline
 90
       17
 70
   128
 43
0.0
 10
402.928499644
 20
689.9530063614
 10
403.6173298223
 20
689.9601772688
 10
404.2012918502
 20
689.9805982854
 10
404.5914828026
 20
690.0111604965
 10
404.728499644
 20
690.0472110826
 10
404.5914828026
 20
690.0832616687
 10
404.2012918502
 20
690.1138238798
 10
403.6173298223
 20
690.1342448964
 10
402.928499644
 20
690.1414158038
 10
402.2396694658
 20
690.1342448964
 10
401.6557074379
 20
690.1138238798
 10
401.2655164855
 20
690.0832616687
 10
401.128499644
 20
690.0472110826
 10
401.2655164855
 20
690.0111604965
 10
401.6557074379
 20
689.9805982854
 10
402.2396694658
 20
689.9601772688
 10
402.928499644
 20
689.9530063614
  0
LWPOLYLINE
  5
B2
330
1F
100
AcDbEntity
  8
0
  6
Continuous
 62
     7
370
    15
100
AcDbPolyline
 90
       17
 70
   128
 43
0.0
 10
612.928499644
 20
689.9530063614
 10
613.6173298223
 20
689.9601772688
 10
614.2012918502
 20
689.9805982854
 10
614.5914828026
 20
690.0111604965
 10
614.728499644
 20
690.0472110826
 10
614.5914828026
 20
690.0832616687
 10
614.2012918502
 20
690.1138238798
 10
613.6173298223
 20
690.1342448964
 10
612.928499644
 20
690.1414158038
 10
612.2396694658
 20
690.1342448964
 10
611.6557074379
 20
690.1138238798
 10
611.2655164855
 20
690.0832616687
 10
611.128499644
 20
690.0472110826
 10
611.2655164855
 20
690.0111604965
 10
611.6557074379
 20
689.9805982854
 10
612.2396694658
 20
689.9601772688
 10
612.928499644
 20
689.9530063614
  0
ARC
  5
B3
330
1F
100
AcDbEntity
  8
0
  6
Continuous
 62
     7
370
    15
100
AcDbCircle
 10
329.928499644
 20
240.3612268201
 30
0.0
 40
19.99999999999994
100
AcDbArc
 50
180.0
 51
270.0
  0
LINE
  5
B4
330
1F
100
AcDbEntity
  8
0
  6
Continuous
 62
     7
370
    15
100
AcDbLine
 10
329.928499644
 20
220.3612268201
 30
0.0
 11
685.928499644
 21
220.3612268201
 31
0.0
  0
LWPOLYLINE
  5
B5
330
1F
100
AcDbEntity
  8
0
  6
Continuous
 62
     7
370
    15
100
AcDbPolyline
 90
       17
 70
   128
 43
0.0
 10
612.928499644
 20
220.5810378363
 10
613.6173298223
 20
220.5882087437
 10
614.2012918502
 20
220.6086297603
 10
614.5914828026
 20
220.6391919714
 10
614.728499644
 20
220.6752425575
 10
614.5914828026
 20
220.7112931436
 10
614.2012918502
 20
220.7418553547
 10
613.6173298223
 20
220.7622763713
 10
612.928499644
 20
220.7694472787
 10
612.2396694658
 20
220.7622763713
 10
611.6557074379
 20
220.7418553547
 10
611.2655164855
 20
220.7112931436
 10
611.128499644
 20
220.6752425575
 10
611.2655164855
 20
220.6391919714
 10
611.6557074379
 20
220.6086297603
 10
612.2396694658
 20
220.5882087437
 10
612.928499644
 20
220.5810378363
  0
LWPOLYLINE
  5
B6
330
1F
100
AcDbEntity
  8
0
  6
Continuous
 62
     7
370
    15
100
AcDbPolyline
 90
       17
 70
   128
 43
0.0
 10
402.928499644
 20
220.5810378363
 10
403.6173298223
 20
220.5882087437
 10
404.2012918502
 20
220.6086297603
 10
404.5914828026
 20
220.6391919714
 10
404.728499644
 20
220.6752425575
 10
404.5914828026
 20
220.7112931436
 10
404.2012918502
 20
220.7418553547
 10
403.6173298223
 20
220.7622763713
 10
402.928499644
 20
220.7694472787
 10
402.2396694658
 20
220.7622763713
 10
401.6557074379
 20
220.7418553547
 10
401.2655164855
 20
220.7112931436
 10
401.128499644
 20
220.6752425575
 10
401.2655164855
 20
220.6391919714
 10
401.6557074379
 20
220.6086297603
 10
402.2396694658
 20
220.5882087437
 10
402.928499644
 20
220.5810378363
  0
ARC
  5
B7
330
1F
100
AcDbEntity
  8
0
  6
Continuous
 62
     7
370
    15
100
AcDbCircle
 10
685.928499644
 20
670.3612268201
 30
0.0
 40
19.99999999999989
100
AcDbArc
 50
0.0
 51
90.0
  0
LINE
  5
B8
330
1F
100
AcDbEntity
  8
0
  6
Continuous
 62
     7
370
    15
100
AcDbLine
 10
705.928499644
 20
240.3612268201
 30
0.0
 11
705.928499644
 21
670.3612268201
 31
0.0
  0
LWPOLYLINE
  5
B9
330
1F
100
AcDbEntity
  8
0
  6
Continuous
 62
     7
370
    15
100
AcDbPolyline
 90
       17
 70
   128
 43
0.0
 10
705.5202791853
 20
620.3612268201
 10
705.5274500928
 20
619.6723966418
 10
705.5478711094
 20
619.0884346139
 10
705.5784333205
 20
618.6982436615
 10
705.6144839066
 20
618.5612268201
 10
705.6505344926
 20
618.6982436615
 10
705.6810967038
 20
619.0884346139
 10
705.7015177204
 20
619.6723966418
 10
705.7086886278
 20
620.3612268201
 10
705.7015177204
 20
621.0500569983
 10
705.6810967038
 20
621.6340190262
 10
705.6505344926
 20
622.0242099786
 10
705.6144839066
 20
622.1612268201
 10
705.5784333205
 20
622.0242099786
 10
705.5478711094
 20
621.6340190262
 10
705.5274500928
 20
621.0500569983
 10
705.5202791853
 20
620.3612268201
  0
LWPOLYLINE
  5
BA
330
1F
100
AcDbEntity
  8
0
  6
Continuous
 62
     7
370
    15
100
AcDbPolyline
 90
       17
 70
   128
 43
0.0
 10
705.5202791853
 20
455.3612268201
 10
705.5274500928
 20
454.6723966418
 10
705.5478711094
 20
454.0884346139
 10
705.5784333205
 20
453.6982436615
 10
705.6144839066
 20
453.5612268201
 10
705.6505344926
 20
453.6982436615
 10
705.6810967038
 20
454.0884346139
 10
705.7015177204
 20
454.6723966418
 10
705.7086886278
 20
455.3612268201
 10
705.7015177204
 20
456.0500569983
 10
705.6810967038
 20
456.6340190262
 10
705.6505344926
 20
457.0242099786
 10
705.6144839066
 20
457.1612268201
 10
705.5784333205
 20
457.0242099786
 10
705.5478711094
 20
456.6340190262
 10
705.5274500928
 20
456.0500569983
 10
705.5202791853
 20
455.3612268201
  0
LWPOLYLINE
  5
BB
330
1F
100
AcDbEntity
  8
0
  6
Continuous
 62
     7
370
    15
100
AcDbPolyline
 90
       17
 70
   128
 43
0.0
 10
705.5202791853
 20
290.3612268201
 10
705.5274500928
 20
289.6723966418
 10
705.5478711094
 20
289.0884346139
 10
705.5784333205
 20
288.6982436615
 10
705.6144839066
 20
288.5612268201
 10
705.6505344926
 20
288.6982436615
 10
705.6810967038
 20
289.0884346139
 10
705.7015177204
 20
289.6723966418
 10
705.7086886278
 20
290.3612268201
 10
705.7015177204
 20
291.0500569983
 10
705.6810967038
 20
291.6340190262
 10
705.6505344926
 20
292.0242099786
 10
705.6144839066
 20
292.1612268201
 10
705.5784333205
 20
292.0242099786
 10
705.5478711094
 20
291.6340190262
 10
705.5274500928
 20
291.0500569983
 10
705.5202791853
 20
290.3612268201
  0
ARC
  5
BC
330
1F
100
AcDbEntity
  8
0
  6
Continuous
 62
     7
370
    15
100
AcDbCircle
 10
685.928499644
 20
240.3612268201
 30
0.0
 40
20.0
100
AcDbArc
 50
270.0
 51
0.0
  0
LINE
  5
BD
330
1F
100
AcDbEntity
  8
0
  6
Continuous
 62
     7
370
    15
100
AcDbLine
 10
677.9798099762
 20
220.3612268201
 30
0.0
 11
677.9798099762
 21
218.425415677
 31
0.0
  0
LINE
  5
BE
330
1F
100
AcDbEntity
  8
0
  6
Continuous
 62
     7
370
    15
100
AcDbLine
 10
705.9798099762
 20
697.525415677
 30
0.0
 11
675.2798099762
 21
697.525415677
 31
0.0
  0
ARC
  5
BF
330
1F
100
AcDbEntity
  8
0
  6
Continuous
 62
     7
370
    15
100
AcDbCircle
 10
705.9798099762
 20
695.525415677
 30
0.0
 40
2.000000000000114
100
AcDbArc
 50
0.0
 51
90.0
  0
LINE
  5
C0
330
1F
100
AcDbEntity
  8
0
  6
Continuous
 62
     7
370
    15
100
AcDbLine
 10
707.9798099762
 20
220.725415677
 30
0.0
 11
707.9798099762
 21
695.525415677
 31
0.0
  0
ARC
  5
C1
330
1F
100
AcDbEntity
  8
0
  6
Continuous
 62
     7
370
    15
100
AcDbCircle
 10
705.6798099762
 20
220.725415677
 30
0.0
 40
2.300000000000068
100
AcDbArc
 50
270.0
 51
0.0
  0
LINE
  5
C2
330
1F
100
AcDbEntity
  8
0
  6
Continuous
 62
     7
370
    15
100
AcDbLine
 10
677.9798099762
 20
218.425415677
 30
0.0
 11
705.6798099762
 21
218.425415677
 31
0.0
  0
LINE
  5
C3
330
1F
100
AcDbEntity
  8
0
  6
Continuous
 62
     7
370
    15
100
AcDbLine
 10
672.9798099762
 20
697.525415677
 30
0.0
 11
675.2798099762
 21
697.525415677
 31
0.0
  0
LINE
  5
C4
330
1F
100
AcDbEntity
  8
0
  6
Continuous
 62
     7
370
    15
100
AcDbLine
 10
672.9798099762
 20
690.3612268201
 30
0.0
 11
672.9798099762
 21
697.525415677
 31
0.0
  0
LINE
  5
C5
330
1F
100
AcDbEntity
  8
0
  6
Continuous
 62
     7
370
    15
100
AcDbLine
 10
685.0798099729
 20
879.0152464548
 30
0.0
 11
685.0798099729
 21
879.0759412111
 31
0.0
  0
ARC
  5
C6
330
1F
100
AcDbEntity
  8
0
  6
Continuous
 62
     7
370
    15
100
AcDbCircle
 10
675.2798099762
 20
697.0524674936
 30
0.0
 40
2.300000000000098
100
AcDbArc
 50
145.0
 51
168.1336396604
  0
ARC
  5
C7
330
1F
100
AcDbEntity
  8
0
  6
Continuous
 62
     7
370
    15
100
AcDbCircle
 10
675.2798099762
 20
697.0524674936
 30
0.0
 40
1.500000000000213
100
AcDbArc
 50
145.0
 51
161.6211476572
  0
LINE
  5
C8
330
1F
100
AcDbEntity
  8
0
  6
Continuous
 62
     7
370
    15
100
AcDbLine
 10
674.4099967606
 20
698.425415677
 30
0.0
 11
674.0510819098
 21
697.9128321482
 31
0.0
  0
LINE
  5
C9
330
1F
100
AcDbEntity
  8
0
  6
Continuous
 62
     7
370
    15
100
AcDbLine
 10
673.4333770896
 20
698.425415677
 30
0.0
 11
673.3957602744
 21
698.3716932972
 31
0.0
  0
LINE
  5
CA
330
1F
100
AcDbEntity
  8
0
  6
Continuous
 62
     7
370
    15
100
AcDbLine
 10
338.9798099763
 20
220.3612268201
 30
0.0
 11
338.9798099763
 21
218.425415677
 31
0.0
  0
ARC
  5
CB
330
1F
100
AcDbEntity
  8
0
  6
Continuous
 62
     7
370
    15
100
AcDbCircle
 10
311.2798099763
 20
220.725415677
 30
0.0
 40
2.30000000000004
100
AcDbArc
 50
180.0
 51
270.0
  0
LINE
  5
CC
330
1F
100
AcDbEntity
  8
0
  6
Continuous
 62
     7
370
    15
100
AcDbLine
 10
338.9798099763
 20
218.425415677
 30
0.0
 11
311.2798099763
 21
218.425415677
 31
0.0
  0
LINE
  5
CD
330
1F
100
AcDbEntity
  8
0
  6
Continuous
 62
     7
370
    15
100
AcDbLine
 10
310.9798099763
 20
697.525415677
 30
0.0
 11
311.7189582717
 21
697.525415677
 31
0.0
  0
LINE
  5
CE
330
1F
100
AcDbEntity
  8
0
  6
Continuous
 62
     7
370
    15
100
AcDbLine
 10
336.754649708
 20
697.525415677
 30
0.0
 11
341.6798099763
 21
697.525415677
 31
0.0
  0
ARC
  5
CF
330
1F
100
AcDbEntity
  8
0
  6
Continuous
 62
     7
370
    15
100
AcDbCircle
 10
310.9798099763
 20
695.525415677
 30
0.0
 40
2.000000000000114
100
AcDbArc
 50
90.0
 51
180.0
  0
LINE
  5
D0
330
1F
100
AcDbEntity
  8
0
  6
Continuous
 62
     7
370
    15
100
AcDbLine
 10
308.9798099763
 20
220.725415677
 30
0.0
 11
308.9798099763
 21
695.525415677
 31
0.0
  0
LINE
  5
D1
330
1F
100
AcDbEntity
  8
0
  6
Continuous
 62
     7
370
    15
100
AcDbLine
 10
343.9798099763
 20
697.525415677
 30
0.0
 11
343.9798099763
 21
690.3612268201
 31
0.0
  0
LINE
  5
D2
330
1F
100
AcDbEntity
  8
0
  6
Continuous
 62
     7
370
    15
100
AcDbLine
 10
341.6798099763
 20
697.525415677
 30
0.0
 11
343.9798099763
 21
697.525415677
 31
0.0
  0
LINE
  5
D3
330
1F
100
AcDbEntity
  8
0
  6
Continuous
 62
     7
370
    15
100
AcDbLine
 10
331.8798099796
 20
879.0759412111
 30
0.0
 11
331.8798099796
 21
879.0152464548
 31
0.0
  0
LINE
  5
D4
330
1F
100
AcDbEntity
  8
0
  6
Continuous
 62
     7
370
    15
100
AcDbLine
 10
342.9085380427
 20
697.9128321482
 30
0.0
 11
342.5496231919
 21
698.425415677
 31
0.0
  0
LINE
  5
D5
330
1F
100
AcDbEntity
  8
0
  6
Continuous
 62
     7
370
    15
100
AcDbLine
 10
343.5638596781
 20
698.3716932972
 30
0.0
 11
343.5262428629
 21
698.425415677
 31
0.0
  0
ARC
  5
D6
330
1F
100
AcDbEntity
  8
0
  6
Continuous
 62
     7
370
    15
100
AcDbCircle
 10
341.6798099763
 20
697.0524674936
 30
0.0
 40
2.299999999999965
100
AcDbArc
 50
11.8663603396
 51
35.0
  0
ARC
  5
D7
330
1F
100
AcDbEntity
  8
0
  6
Continuous
 62
     7
370
    15
100
AcDbCircle
 10
341.6798099763
 20
697.0524674936
 30
0.0
 40
1.49999999999997
100
AcDbArc
 50
18.3788523428
 51
35.0
  0
LINE
  5
D8
330
1F
100
AcDbEntity
  8
0
  6
Continuous
 62
     7
370
    15
100
AcDbLine
 10
399.9798099762
 20
54.725415677
 30
0.0
 11
342.9798099762
 21
54.725415677
 31
0.0
  0
LINE
  5
D9
330
1F
100
AcDbEntity
  8
0
  6
Continuous
 62
     7
370
    15
100
AcDbLine
 10
397.9798099762
 20
48.725415677
 30
0.0
 11
344.9798099762
 21
48.725415677
 31
0.0
  0
LINE
  5
DA
330
1F
100
AcDbEntity
  8
0
  6
Continuous
 62
     7
370
    15
100
AcDbLine
 10
671.9798099054
 20
48.725415677
 30
0.0
 11
618.9798099762
 21
48.725415677
 31
0.0
  0
LINE
  5
DB
330
1F
100
AcDbEntity
  8
0
  6
Continuous
 62
     7
370
    15
100
AcDbLine
 10
673.9798099762
 20
54.725415677
 30
0.0
 11
616.9798099762
 21
54.725415677
 31
0.0
  0
LINE
  5
DC
330
1F
100
AcDbEntity
  8
0
  6
Continuous
 62
     7
370
    15
100
AcDbLine
 10
406.4798099762
 20
216.725415677
 30
0.0
 11
406.4798099762
 21
218.425415677
 31
0.0
  0
LINE
  5
DD
330
1F
100
AcDbEntity
  8
0
  6
Continuous
 62
     7
370
    15
100
AcDbLine
 10
336.4798099762
 20
216.725415677
 30
0.0
 11
406.4798099762
 21
216.725415677
 31
0.0
  0
LINE
  5
DE
330
1F
100
AcDbEntity
  8
0
  6
Continuous
 62
     7
370
    15
100
AcDbLine
 10
336.4798099762
 20
216.725415677
 30
0.0
 11
336.4798099762
 21
218.425415677
 31
0.0
  0
LINE
  5
DF
330
1F
100
AcDbEntity
  8
0
  6
Continuous
 62
     7
370
    15
100
AcDbLine
 10
402.4394601966
 20
122.725415677
 30
0.0
 11
340.5201597559
 21
122.725415677
 31
0.0
  0
LINE
  5
E0
330
1F
100
AcDbEntity
  8
0
  6
Continuous
 62
     7
370
    15
100
AcDbLine
 10
680.4798099762
 20
216.725415677
 30
0.0
 11
680.4798099762
 21
218.425415677
 31
0.0
  0
LINE
  5
E1
330
1F
100
AcDbEntity
  8
0
  6
Continuous
 62
     7
370
    15
100
AcDbLine
 10
610.4798099762
 20
216.725415677
 30
0.0
 11
680.4798099762
 21
216.725415677
 31
0.0
  0
LINE
  5
E2
330
1F
100
AcDbEntity
  8
0
  6
Continuous
 62
     7
370
    15
100
AcDbLine
 10
610.4798099762
 20
216.725415677
 30
0.0
 11
610.4798099762
 21
218.425415677
 31
0.0
  0
LINE
  5
E3
330
1F
100
AcDbEntity
  8
0
  6
Continuous
 62
     7
370
    15
100
AcDbLine
 10
676.4394601966
 20
122.725415677
 30
0.0
 11
614.5201597559
 21
122.725415677
 31
0.0
  0
LINE
  5
E4
330
1F
100
AcDbEntity
  8
0
  6
Continuous
 62
     7
370
    15
100
AcDbLine
 10
677.9798099762
 20
218.425415677
 30
0.0
 11
338.9798099762
 21
218.425415677
 31
0.0
  0
LINE
  5
E5
330
1F
100
AcDbEntity
  8
0
  6
Continuous
 62
     7
370
    15
100
AcDbLine
 10
311.1142580728
 20
698.425415677
 30
0.0
 11
311.2798099763
 21
698.275415677
 31
0.0
  0
LINE
  5
E6
330
1F
100
AcDbEntity
  8
0
  6
Continuous
 62
     7
370
    15
100
AcDbLine
 10
308.9798099763
 20
695.525415677
 30
0.0
 11
308.9798099763
 21
698.425415677
 31
0.0
  0
LINE
  5
E7
330
1F
100
AcDbEntity
  8
0
  6
Continuous
 62
     7
370
    15
100
AcDbLine
 10
311.7194349108
 20
697.76251992
 30
0.0
 11
311.2798099763
 21
698.275415677
 31
0.0
  0
LINE
  5
E8
330
1F
100
AcDbEntity
  8
0
  6
Continuous
 62
     7
370
    15
100
AcDbLine
 10
311.1742205846
 20
698.425415677
 30
0.0
 11
311.2798099763
 21
698.275415677
 31
0.0
  0
LINE
  5
E9
330
1F
100
AcDbEntity
  8
0
  6
Continuous
 62
     7
370
    15
100
AcDbLine
 10
705.0369528334
 20
697.525415677
 30
0.0
 11
705.6798099762
 21
698.275415677
 31
0.0
  0
LINE
  5
EA
330
1F
100
AcDbEntity
  8
0
  6
Continuous
 62
     7
370
    15
100
AcDbLine
 10
705.6798099762
 20
698.275415677
 30
0.0
 11
705.8408823911
 21
698.425415677
 31
0.0
  0
LINE
  5
EB
330
1F
100
AcDbEntity
  8
0
  6
Continuous
 62
     7
370
    15
100
AcDbLine
 10
707.9798099762
 20
698.425415677
 30
0.0
 11
707.9798099762
 21
695.525415677
 31
0.0
  0
LINE
  5
EC
330
1F
100
AcDbEntity
  8
0
  6
Continuous
 62
     7
370
    15
100
AcDbLine
 10
705.6798099762
 20
698.275415677
 30
0.0
 11
705.7871044608
 21
698.425415677
 31
0.0
  0
SPLINE
  5
ED
330
1F
100
AcDbEntity
  8
0
  6
Continuous
 62
     7
370
    15
100
AcDbSpline
210
0.0
220
0.0
230
1.0
 70
     8
 71
     3
 72
    12
 73
     8
 74
     0
 42
0.00000001
 43
0.00000001
 12
1.0
 22
0.0
 32
0.0
 13
1.0
 23
0.0
 33
0.0
 40
0.0
 40
0.0
 40
0.0
 40
0.0
 40
0.2028202020467093
 40
0.4049472449427023
 40
0.609831203074087
 40
0.822693924182764
 40
1.0
 40
1.0
 40
1.0
 40
1.0
 10
457.2071798809188
 20
206.5754156769592
 30
0.0
 10
457.2021166796225
 20
206.7325565174946
 30
0.0
 10
457.1920075810472
 20
207.0463011533872
 30
0.0
 10
457.1132805968171
 20
207.4666974038564
 30
0.0
 10
456.9955780841875
 20
207.7937759392963
 30
0.0
 10
456.853020664728
 20
207.9919852055621
 30
0.0
 10
456.7508989426873
 20
208.0149704114841
 30
0.0
 10
456.7044913315882
 20
208.0254156769589
 30
0.0
  0
LINE
  5
EE
330
1F
100
AcDbEntity
  8
0
  6
Continuous
 62
     7
370
    15
100
AcDbLine
 10
450.9549119946
 20
208.025415677
 30
0.0
 11
456.7044913316
 21
208.025415677
 31
0.0
  0
LINE
  5
EF
330
1F
100
AcDbEntity
  8
0
  6
Continuous
 62
     7
370
    15
100
AcDbLine
 10
457.0668031676
 20
201.225415677
 30
0.0
 11
451.3172238306
 21
201.225415677
 31
0.0
  0
ARC
  5
F0
330
1F
100
AcDbEntity
  8
0
  6
Continuous
 62
     7
370
    15
100
AcDbCircle
 10
451.3225545421
 20
201.4703074522
 30
0.0
 40
0.2449497868469617
100
AcDbArc
 50
178.8050573942
 51
268.7530040922
  0
SPLINE
  5
F1
330
1F
100
AcDbEntity
  8
0
  6
Continuous
 62
     7
370
    15
100
AcDbSpline
210
0.0
220
0.0
230
1.0
 70
     8
 71
     3
 72
    13
 73
     9
 74
     0
 42
0.00000001
 43
0.00000001
 12
1.0
 22
0.0
 32
0.0
 13
1.0
 23
0.0
 33
0.0
 40
0.0
 40
0.0
 40
0.0
 40
0.0
 40
0.1695411050602321
 40
0.3386458383075776
 40
0.5184804584264527
 40
0.727723621148361
 40
0.9924537768849656
 40
1.0
 40
1.0
 40
1.0
 40
1.0
 10
450.6726117364747
 20
207.0754156769587
 30
0.0
 10
450.6742541078959
 20
207.0508045296721
 30
0.0
 10
450.6775346235356
 20
207.0016455802737
 30
0.0
 10
450.7024427585986
 20
206.9355097868931
 30
0.0
 10
450.7400324637675
 20
206.8798381837888
 30
0.0
 10
450.7940912023841
 20
206.8371194045167
 30
0.0
 10
450.8380721911255
 20
206.8255337449044
 30
0.0
 10
450.8627120231984
 20
206.8254188610013
 30
0.0
 10
450.8633949236803
 20
206.8254156769587
 30
0.0
  0
LINE
  5
F2
330
1F
100
AcDbEntity
  8
0
  6
Continuous
 62
     7
370
    15
100
AcDbLine
 10
450.8633949237
 20
206.825415677
 30
0.0
 11
444.4423708112
 21
206.825415677
 31
0.0
  0
LINE
  5
F3
330
1F
100
AcDbEntity
  8
0
  6
Continuous
 62
     7
370
    15
100
AcDbLine
 10
444.1302272684
 20
206.825415677
 30
0.0
 11
443.9517443617
 21
206.825415677
 31
0.0
  0
SPLINE
  5
F4
330
1F
100
AcDbEntity
  8
0
  6
Continuous
 62
     7
370
    15
100
AcDbSpline
210
0.0
220
0.0
230
1.0
 70
     8
 71
     3
 72
    13
 73
     9
 74
     0
 42
0.00000001
 43
0.00000001
 12
1.0
 22
0.0
 32
0.0
 13
1.0
 23
0.0
 33
0.0
 40
0.0
 40
0.0
 40
0.0
 40
0.0
 40
0.0075462231152557
 40
0.2722763788510599
 40
0.4815195415733473
 40
0.6613541616922402
 40
0.8304588949398056
 40
1.0
 40
1.0
 40
1.0
 40
1.0
 10
450.8633949236802
 20
208.0254156769587
 30
0.0
 10
450.8627120231983
 20
208.0254124929162
 30
0.0
 10
450.8380721911239
 20
208.0252976090129
 30
0.0
 10
450.7940912023847
 20
208.0137119494007
 30
0.0
 10
450.7400324637674
 20
207.9709931701286
 30
0.0
 10
450.7024427585986
 20
207.9153215670243
 30
0.0
 10
450.6775346235355
 20
207.8491857736437
 30
0.0
 10
450.6742541078958
 20
207.8000268242454
 30
0.0
 10
450.6726117364747
 20
207.7754156769587
 30
0.0
  0
LINE
  5
F5
330
1F
100
AcDbEntity
  8
0
  6
Continuous
 62
     7
370
    15
100
AcDbLine
 10
443.863076607
 20
208.025415677
 30
0.0
 11
450.8633949237
 21
208.025415677
 31
0.0
  0
LINE
  5
F6
330
1F
100
AcDbEntity
  8
0
  6
Continuous
 62
     7
370
    15
100
AcDbLine
 10
450.6726117365
 20
207.075415677
 30
0.0
 11
450.6726117365
 21
207.775415677
 31
0.0
  0
LINE
  5
F7
330
1F
100
AcDbEntity
  8
0
  6
Continuous
 62
     7
370
    15
100
AcDbLine
 10
451.3172238306
 20
201.225415677
 30
0.0
 11
451.1065349094
 21
201.225415677
 31
0.0
  0
LINE
  5
F8
330
1F
100
AcDbEntity
  8
0
  6
Continuous
 62
     7
370
    15
100
AcDbLine
 10
450.8633949237
 20
208.025415677
 30
0.0
 11
450.9549119946
 21
208.025415677
 31
0.0
  0
LINE
  5
F9
330
1F
100
AcDbEntity
  8
0
  6
Continuous
 62
     7
370
    15
100
AcDbLine
 10
457.3168031676
 20
206.575415677
 30
0.0
 11
457.2071798809
 21
206.575415677
 31
0.0
  0
LINE
  5
FA
330
1F
100
AcDbEntity
  8
0
  6
Continuous
 62
     7
370
    15
100
AcDbLine
 10
459.8479568109
 20
206.825415677
 30
0.0
 11
457.281532325
 21
206.825415677
 31
0.0
  0
LINE
  5
FB
330
1F
100
AcDbEntity
  8
0
  6
Continuous
 62
     7
370
    15
100
AcDbLine
 10
456.6129742606
 20
208.025415677
 30
0.0
 11
459.9298099762
 21
208.025415677
 31
0.0
  0
SPLINE
  5
FC
330
1F
100
AcDbEntity
  8
0
  6
Continuous
 62
     7
370
    15
100
AcDbSpline
210
0.0
220
0.0
230
1.0
 70
     8
 71
     3
 72
    13
 73
     9
 74
     0
 42
0.00000001
 43
0.00000001
 12
1.0
 22
0.0
 32
0.0
 13
1.0
 23
0.0
 33
0.0
 40
0.0
 40
0.0
 40
0.0
 40
0.0
 40
0.1695411050602332
 40
0.3386458383075808
 40
0.5184804584264496
 40
0.7277236211483389
 40
0.992453776884959
 40
1.0
 40
1.0
 40
1.0
 40
1.0
 10
444.3314307455598
 20
206.5754156769592
 30
0.0
 10
444.3323673607496
 20
206.6000268242458
 30
0.0
 10
444.3342381804306
 20
206.6491857736441
 30
0.0
 10
444.3484879796385
 20
206.7153215670247
 30
0.0
 10
444.3701262858639
 20
206.770993170129
 30
0.0
 10
444.4015127855059
 20
206.8137119494011
 30
0.0
 10
444.4273677300627
 20
206.8252976090135
 30
0.0
 10
444.4419662098304
 20
206.8254124929166
 30
0.0
 10
444.442370811162
 20
206.8254156769591
 30
0.0
  0
LINE
  5
FD
330
1F
100
AcDbEntity
  8
0
  6
Continuous
 62
     7
370
    15
100
AcDbLine
 10
457.3041334298
 20
206.825415677
 30
0.0
 11
459.8479568109
 21
206.825415677
 31
0.0
  0
SPLINE
  5
FE
330
1F
100
AcDbEntity
  8
0
  6
Continuous
 62
     7
370
    15
100
AcDbSpline
210
0.0
220
0.0
230
1.0
 70
     8
 71
     3
 72
    13
 73
     9
 74
     0
 42
0.00000001
 43
0.00000001
 12
1.0
 22
0.0
 32
0.0
 13
1.0
 23
0.0
 33
0.0
 40
0.0
 40
0.0
 40
0.0
 40
0.0
 40
0.1695411050600086
 40
0.3386458383077918
 40
0.5184804584271437
 40
0.7277236211487519
 40
0.9924537768855046
 40
0.9999999999999999
 40
0.9999999999999999
 40
0.9999999999999999
 40
0.9999999999999999
 10
460.0697891823228
 20
206.5754156769592
 30
0.0
 10
460.06790062431
 20
206.6000268242458
 30
0.0
 10
460.0641283691322
 20
206.6491857736443
 30
0.0
 10
460.0354348745051
 20
206.7153215670247
 30
0.0
 10
459.9919796711676
 20
206.7709931701288
 30
0.0
 10
459.9291787185732
 20
206.8137119494015
 30
0.0
 10
459.8777191434305
 20
206.8252976090135
 30
0.0
 10
459.8487594380143
 20
206.8254124929166
 30
0.0
 10
459.8479568109215
 20
206.8254156769591
 30
0.0
  0
LINE
  5
FF
330
1F
100
AcDbEntity
  8
0
  6
Continuous
 62
     7
370
    15
100
AcDbLine
 10
459.8479568109
 20
205.625415677
 30
0.0
 11
457.3168031676
 21
205.625415677
 31
0.0
  0
LINE
  5
100
330
1F
100
AcDbEntity
  8
0
  6
Continuous
 62
     7
370
    15
100
AcDbLine
 10
450.8565349094
 20
205.625415677
 30
0.0
 11
444.4423708112
 21
205.625415677
 31
0.0
  0
SPLINE
  5
101
330
1F
100
AcDbEntity
  8
0
  6
Continuous
 62
     7
370
    15
100
AcDbSpline
210
0.0
220
0.0
230
1.0
 70
     8
 71
     3
 72
    13
 73
     9
 74
     0
 42
0.00000001
 43
0.00000001
 12
1.0
 22
0.0
 32
0.0
 13
1.0
 23
0.0
 33
0.0
 40
0.0
 40
0.0
 40
0.0
 40
0.0
 40
0.0075462231152529
 40
0.2722763788510682
 40
0.481519541573351
 40
0.6613541616922359
 40
0.8304588949398088
 40
1.0
 40
1.0
 40
1.0
 40
1.0
 10
444.442370811162
 20
205.6254156769591
 30
0.0
 10
444.4419662098304
 20
205.6254188610017
 30
0.0
 10
444.4273677300638
 20
205.6255337449048
 30
0.0
 10
444.4015127855055
 20
205.6371194045172
 30
0.0
 10
444.370126285864
 20
205.6798381837892
 30
0.0
 10
444.3484879796385
 20
205.7355097868936
 30
0.0
 10
444.3342381804305
 20
205.801645580274
 30
0.0
 10
444.3323673607494
 20
205.8508045296725
 30
0.0
 10
444.3314307455597
 20
205.8754156769591
 30
0.0
  0
SPLINE
  5
102
330
1F
100
AcDbEntity
  8
0
  6
Continuous
 62
     7
370
    15
100
AcDbSpline
210
0.0
220
0.0
230
1.0
 70
     8
 71
     3
 72
    13
 73
     9
 74
     0
 42
0.00000001
 43
0.00000001
 12
1.0
 22
0.0
 32
0.0
 13
1.0
 23
0.0
 33
0.0
 40
0.0
 40
0.0
 40
0.0
 40
0.0
 40
0.0075462231143667
 40
0.2722763788513834
 40
0.4815195415730086
 40
0.6613541616924551
 40
0.8304588949399527
 40
1.0
 40
1.0
 40
1.0
 40
1.0
 10
459.8479568109215
 20
205.6254156769591
 30
0.0
 10
459.8487594380142
 20
205.6254188610016
 30
0.0
 10
459.8777191434292
 20
205.6255337449048
 30
0.0
 10
459.9291787185737
 20
205.6371194045169
 30
0.0
 10
459.9919796711674
 20
205.6798381837895
 30
0.0
 10
460.035434874505
 20
205.7355097868936
 30
0.0
 10
460.0641283691319
 20
205.801645580274
 30
0.0
 10
460.0679006243099
 20
205.8508045296725
 30
0.0
 10
460.0697891823228
 20
205.8754156769591
 30
0.0
  0
LINE
  5
103
330
1F
100
AcDbEntity
  8
0
  6
Continuous
 62
     7
370
    15
100
AcDbLine
 10
444.3314307456
 20
206.575415677
 30
0.0
 11
444.3314307456
 21
205.875415677
 31
0.0
  0
LINE
  5
104
330
1F
100
AcDbEntity
  8
0
  6
Continuous
 62
     7
370
    15
100
AcDbLine
 10
460.0697891823
 20
206.575415677
 30
0.0
 11
460.0697891823
 21
205.875415677
 31
0.0
  0
SPLINE
  5
105
330
1F
100
AcDbEntity
  8
0
  6
Continuous
 62
     7
370
    15
100
AcDbSpline
210
0.0
220
0.0
230
1.0
 70
     8
 71
     3
 72
    12
 73
     8
 74
     0
 42
0.00000001
 43
0.00000001
 12
1.0
 22
0.0
 32
0.0
 13
1.0
 23
0.0
 33
0.0
 40
0.0
 40
0.0
 40
0.0
 40
0.0
 40
0.2289440738516137
 40
0.4594214300241636
 40
0.6825355698157808
 40
0.8947175231628798
 40
1.0
 40
1.0
 40
1.0
 40
1.0
 10
444.1302272683695
 20
205.6254156769589
 30
0.0
 10
443.9597344927895
 20
205.6427501615365
 30
0.0
 10
443.6176071188503
 20
205.6775352230557
 30
0.0
 10
443.1661591094763
 20
205.9514050688679
 30
0.0
 10
442.8411978658436
 20
206.3484416033509
 30
0.0
 10
442.6952800653754
 20
206.7493175927036
 30
0.0
 10
442.6828691859956
 20
206.9942029857907
 30
0.0
 10
442.6787532977366
 20
207.0754156769589
 30
0.0
  0
LINE
  5
106
330
1F
100
AcDbEntity
  8
0
  6
Continuous
 62
     7
370
    15
100
AcDbLine
 10
444.1302272684
 20
205.625415677
 30
0.0
 11
442.7298099762
 21
205.625415677
 31
0.0
  0
LINE
  5
107
330
1F
100
AcDbEntity
  8
0
  6
Continuous
 62
     7
370
    15
100
AcDbLine
 10
442.8944654712
 20
212.425415677
 30
0.0
 11
443.613076607
 21
212.425415677
 31
0.0
  0
LINE
  5
108
330
1F
100
AcDbEntity
  8
0
  6
Continuous
 62
     7
370
    15
100
AcDbLine
 10
441.5298099762
 20
212.425415677
 30
0.0
 11
442.8944654712
 21
212.425415677
 31
0.0
  0
LINE
  5
109
330
1F
100
AcDbEntity
  8
0
  6
Continuous
 62
     7
370
    15
100
AcDbLine
 10
444.1302272684
 20
206.825415677
 30
0.0
 11
444.4423708112
 21
206.825415677
 31
0.0
  0
LINE
  5
10A
330
1F
100
AcDbEntity
  8
0
  6
Continuous
 62
     7
370
    15
100
AcDbLine
 10
444.4423708112
 20
205.625415677
 30
0.0
 11
444.1302272684
 21
205.625415677
 31
0.0
  0
LINE
  5
10B
330
1F
100
AcDbEntity
  8
0
  6
Continuous
 62
     7
370
    15
100
AcDbLine
 10
459.8479568109
 20
206.825415677
 30
0.0
 11
460.1601003537
 21
206.825415677
 31
0.0
  0
LINE
  5
10C
330
1F
100
AcDbEntity
  8
0
  6
Continuous
 62
     7
370
    15
100
AcDbLine
 10
460.1601003537
 20
205.625415677
 30
0.0
 11
459.8479568109
 21
205.625415677
 31
0.0
  0
SPLINE
  5
10D
330
1F
100
AcDbEntity
  8
0
  6
Continuous
 62
     7
370
    15
100
AcDbSpline
210
0.0
220
0.0
230
1.0
 70
     8
 71
     3
 72
    12
 73
     8
 74
     0
 42
0.00000001
 43
0.00000001
 12
1.0
 22
0.0
 32
0.0
 13
1.0
 23
0.0
 33
0.0
 40
0.0
 40
0.0
 40
0.0
 40
0.0
 40
0.1857269751952686
 40
0.3769257606107185
 40
0.581223102823471
 40
0.8052780461446032
 40
0.9999999999999999
 40
0.9999999999999999
 40
0.9999999999999999
 40
0.9999999999999999
 10
460.4286715275593
 20
207.0754156769592
 30
0.0
 10
460.4258806461983
 20
207.0483085604295
 30
0.0
 10
460.4202166597005
 20
206.9932957088759
 30
0.0
 10
460.3771112933391
 20
206.9208559268195
 30
0.0
 10
460.3139741815777
 20
206.8649123166066
 30
0.0
 10
460.2382814158599
 20
206.8311596701247
 30
0.0
 10
460.1849146938711
 20
206.8272387962205
 30
0.0
 10
460.1601003537138
 20
206.8254156769591
 30
0.0
  0
LINE
  5
10E
330
1F
100
AcDbEntity
  8
0
  6
Continuous
 62
     7
370
    15
100
AcDbLine
 10
460.2298099762
 20
205.625415677
 30
0.0
 11
460.1601003537
 21
205.625415677
 31
0.0
  0
LINE
  5
10F
330
1F
100
AcDbEntity
  8
0
  6
Continuous
 62
     7
370
    15
100
AcDbLine
 10
460.6772510151
 20
212.425415677
 30
0.0
 11
461.3958621509
 21
212.425415677
 31
0.0
  0
LINE
  5
110
330
1F
100
AcDbEntity
  8
0
  6
Continuous
 62
     7
370
    15
100
AcDbLine
 10
459.3465433455
 20
212.425415677
 30
0.0
 11
460.6772510151
 21
212.425415677
 31
0.0
  0
LINE
  5
111
330
1F
100
AcDbEntity
  8
0
  6
Continuous
 62
     7
370
    15
100
AcDbLine
 10
461.3958621509
 20
212.425415677
 30
0.0
 11
461.4298099762
 21
212.425415677
 31
0.0
  0
LINE
  5
112
330
1F
100
AcDbEntity
  8
0
  6
Continuous
 62
     7
370
    15
100
AcDbLine
 10
445.7196601447
 20
205.1788336896
 30
0.0
 11
447.3296280576
 21
205.625415677
 31
0.0
  0
SPLINE
  5
113
330
1F
100
AcDbEntity
  8
0
  6
Continuous
 62
     7
370
    15
100
AcDbSpline
210
0.0
220
0.0
230
1.0
 70
     8
 71
     3
 72
     9
 73
     5
 74
     0
 42
0.00000001
 43
0.00000001
 12
1.0
 22
0.0
 32
0.0
 13
1.0
 23
0.0
 33
0.0
 40
0.0
 40
0.0
 40
0.0
 40
0.0
 40
0.0702005767034499
 40
1.0
 40
1.0
 40
1.0
 40
1.0
 10
447.329628057644
 20
205.6254156769589
 30
0.0
 10
447.367793823262
 20
205.6249695606913
 30
0.0
 10
447.9114612318538
 20
205.6186146803109
 30
0.0
 10
448.4442289000172
 20
205.3907251984155
 30
0.0
 10
448.9395959706267
 20
205.1788336895737
 30
0.0
  0
LINE
  5
114
330
1F
100
AcDbEntity
  8
0
  6
Continuous
 62
     7
370
    15
100
AcDbLine
 10
448.9395959706
 20
205.1788336896
 30
0.0
 11
448.9395959706
 21
200.8719976643
 31
0.0
  0
SPLINE
  5
115
330
1F
100
AcDbEntity
  8
0
  6
Continuous
 62
     7
370
    15
100
AcDbSpline
210
0.0
220
0.0
230
1.0
 70
     8
 71
     3
 72
     9
 73
     5
 74
     0
 42
0.00000001
 43
0.00000001
 12
1.0
 22
0.0
 32
0.0
 13
1.0
 23
0.0
 33
0.0
 40
0.0
 40
0.0
 40
0.0
 40
0.0
 40
0.0702005767034499
 40
1.0
 40
1.0
 40
1.0
 40
1.0
 10
447.329628057644
 20
200.4254156769589
 30
0.0
 10
447.367793823262
 20
200.4258617932265
 30
0.0
 10
447.9114612318537
 20
200.4322166736068
 30
0.0
 10
448.4442289000172
 20
200.6601061555023
 30
0.0
 10
448.9395959706267
 20
200.8719976643441
 30
0.0
  0
LINE
  5
116
330
1F
100
AcDbEntity
  8
0
  6
Continuous
 62
     7
370
    15
100
AcDbLine
 10
445.7196601447
 20
200.8719976643
 30
0.0
 11
447.3296280576
 21
200.425415677
 31
0.0
  0
LINE
  5
117
330
1F
100
AcDbEntity
  8
0
  6
Continuous
 62
     7
370
    15
100
AcDbLine
 10
445.7196601447
 20
205.1788336896
 30
0.0
 11
445.7196601447
 21
200.8719976643
 31
0.0
  0
LINE
  5
118
330
1F
100
AcDbEntity
  8
0
  6
Continuous
 62
     7
370
    15
100
AcDbLine
 10
450.8565349094
 20
205.5548224775
 30
0.0
 11
448.9395959706
 21
205.1788336896
 31
0.0
  0
SPLINE
  5
119
330
1F
100
AcDbEntity
  8
0
  6
Continuous
 62
     7
370
    15
100
AcDbSpline
210
0.0
220
0.0
230
1.0
 70
     8
 71
     3
 72
     9
 73
     5
 74
     0
 42
0.00000001
 43
0.00000001
 12
1.0
 22
0.0
 32
0.0
 13
1.0
 23
0.0
 33
0.0
 40
0.0
 40
0.0
 40
0.0
 40
0.0
 40
0.2686336050555442
 40
1.0
 40
1.0
 40
1.0
 40
1.0
 10
451.8196708864195
 20
200.4254156769589
 30
0.0
 10
451.5577914867799
 20
200.4320446295434
 30
0.0
 10
450.5829343031988
 20
200.4567211869797
 30
0.0
 10
449.6337774191501
 20
200.6965759505797
 30
0.0
 10
448.9395959706267
 20
200.8719976643441
 30
0.0
  0
LINE
  5
11A
330
1F
100
AcDbEntity
  8
0
  6
Continuous
 62
     7
370
    15
100
AcDbLine
 10
451.8196708864
 20
200.425415677
 30
0.0
 11
447.3296280576
 21
200.425415677
 31
0.0
  0
LINE
  5
11B
330
1F
100
AcDbEntity
  8
0
  6
Continuous
 62
     7
370
    15
100
AcDbLine
 10
454.6997458022
 20
201.225415677
 30
0.0
 11
454.6997458022
 21
200.8719976643
 31
0.0
  0
SPLINE
  5
11C
330
1F
100
AcDbEntity
  8
0
  6
Continuous
 62
     7
370
    15
100
AcDbSpline
210
0.0
220
0.0
230
1.0
 70
     8
 71
     3
 72
     9
 73
     5
 74
     0
 42
0.00000001
 43
0.00000001
 12
1.0
 22
0.0
 32
0.0
 13
1.0
 23
0.0
 33
0.0
 40
0.0
 40
0.0
 40
0.0
 40
0.0
 40
0.257551345103825
 40
1.0
 40
1.0
 40
1.0
 40
1.0
 10
454.6997458022125
 20
200.8719976643441
 30
0.0
 10
454.4579585091105
 20
200.8045824415692
 30
0.0
 10
453.5191659238708
 20
200.5428279446253
 30
0.0
 10
452.5438172198067
 20
200.4754444568327
 30
0.0
 10
451.8196708864195
 20
200.4254156769589
 30
0.0
  0
LINE
  5
11D
330
1F
100
AcDbEntity
  8
0
  6
Continuous
 62
     7
370
    15
100
AcDbLine
 10
454.6997458022
 20
200.8719976643
 30
0.0
 11
455.969852805
 21
200.425415677
 31
0.0
  0
LINE
  5
11E
330
1F
100
AcDbEntity
  8
0
  6
Continuous
 62
     7
370
    15
100
AcDbLine
 10
455.969852805
 20
200.425415677
 30
0.0
 11
451.8196708864
 21
200.425415677
 31
0.0
  0
LINE
  5
11F
330
1F
100
AcDbEntity
  8
0
  6
Continuous
 62
     7
370
    15
100
AcDbLine
 10
457.2399598078
 20
201.2950915856
 30
0.0
 11
457.2399598078
 21
200.8719976643
 31
0.0
  0
SPLINE
  5
120
330
1F
100
AcDbEntity
  8
0
  6
Continuous
 62
     7
370
    15
100
AcDbSpline
210
0.0
220
0.0
230
1.0
 70
     8
 71
     3
 72
     9
 73
     5
 74
     0
 42
0.00000001
 43
0.00000001
 12
1.0
 22
0.0
 32
0.0
 13
1.0
 23
0.0
 33
0.0
 40
0.0
 40
0.0
 40
0.0
 40
0.0
 40
0.0702005767034105
 40
1.0
 40
1.0
 40
1.0
 40
1.0
 10
455.9698528050226
 20
200.4254156769589
 30
0.0
 10
455.9999618561335
 20
200.4258617932265
 30
0.0
 10
456.4288621946325
 20
200.4322166736069
 30
0.0
 10
456.8491637054572
 20
200.6601061555023
 30
0.0
 10
457.2399598078327
 20
200.8719976643441
 30
0.0
  0
LINE
  5
121
330
1F
100
AcDbEntity
  8
0
  6
Continuous
 62
     7
370
    15
100
AcDbLine
 10
445.9102705518
 20
205.2505902395
 30
0.0
 11
445.7196601447
 21
205.1788336896
 31
0.0
  0
LINE
  5
122
330
1F
100
AcDbEntity
  8
0
  6
Continuous
 62
     7
370
    15
100
AcDbLine
 10
445.9102705518
 20
200.8002411144
 30
0.0
 11
445.7196601447
 21
200.8719976643
 31
0.0
  0
LINE
  5
123
330
1F
100
AcDbEntity
  8
0
  6
Continuous
 62
     7
370
    15
100
AcDbLine
 10
447.3296280576
 20
200.425415677
 30
0.0
 11
446.4798099762
 21
200.425415677
 31
0.0
  0
LINE
  5
124
330
1F
100
AcDbEntity
  8
0
  6
Continuous
 62
     7
370
    15
100
AcDbLine
 10
456.4798099762
 20
200.425415677
 30
0.0
 11
455.969852805
 21
200.425415677
 31
0.0
  0
LINE
  5
125
330
1F
100
AcDbEntity
  8
0
  6
Continuous
 62
     7
370
    15
100
AcDbLine
 10
452.9259291138
 20
212.7788336896
 30
0.0
 11
454.9847068812
 21
213.225415677
 31
0.0
  0
SPLINE
  5
126
330
1F
100
AcDbEntity
  8
0
  6
Continuous
 62
     7
370
    15
100
AcDbSpline
210
0.0
220
0.0
230
1.0
 70
     8
 71
     3
 72
     9
 73
     5
 74
     0
 42
0.00000001
 43
0.00000001
 12
1.0
 22
0.0
 32
0.0
 13
1.0
 23
0.0
 33
0.0
 40
0.0
 40
0.0
 40
0.0
 40
0.0
 40
0.0702005767034128
 40
0.9999999999999999
 40
0.9999999999999999
 40
0.9999999999999999
 40
0.9999999999999999
 10
454.9847068811551
 20
213.2254156769589
 30
0.0
 10
455.0335120959016
 20
213.2249695606913
 30
0.0
 10
455.728737363817
 20
213.2186146803109
 30
0.0
 10
456.4100243767643
 20
212.9907251984154
 30
0.0
 10
457.0434846485021
 20
212.7788336895737
 30
0.0
  0
LINE
  5
127
330
1F
100
AcDbEntity
  8
0
  6
Continuous
 62
     7
370
    15
100
AcDbLine
 10
457.0434846485
 20
212.7788336896
 30
0.0
 11
457.0434846485
 21
208.4719976643
 31
0.0
  0
SPLINE
  5
128
330
1F
100
AcDbEntity
  8
0
  6
Continuous
 62
     7
370
    15
100
AcDbSpline
210
0.0
220
0.0
230
1.0
 70
     8
 71
     3
 72
     9
 73
     5
 74
     0
 42
0.00000001
 43
0.00000001
 12
1.0
 22
0.0
 32
0.0
 13
1.0
 23
0.0
 33
0.0
 40
0.0
 40
0.0
 40
0.0
 40
0.0
 40
0.0702005767034127
 40
1.0
 40
1.0
 40
1.0
 40
1.0
 10
454.9847068811551
 20
208.0254156769589
 30
0.0
 10
455.0335120959016
 20
208.0258617932265
 30
0.0
 10
455.7287373638169
 20
208.0322166736069
 30
0.0
 10
456.4100243767642
 20
208.2601061555024
 30
0.0
 10
457.0434846485021
 20
208.4719976643441
 30
0.0
  0
LINE
  5
129
330
1F
100
AcDbEntity
  8
0
  6
Continuous
 62
     7
370
    15
100
AcDbLine
 10
452.9259291138
 20
208.4719976643
 30
0.0
 11
454.9847068812
 21
208.025415677
 31
0.0
  0
LINE
  5
12A
330
1F
100
AcDbEntity
  8
0
  6
Continuous
 62
     7
370
    15
100
AcDbLine
 10
452.9259291138
 20
212.7788336896
 30
0.0
 11
452.9259291138
 21
208.4719976643
 31
0.0
  0
SPLINE
  5
12B
330
1F
100
AcDbEntity
  8
0
  6
Continuous
 62
     7
370
    15
100
AcDbSpline
210
0.0
220
0.0
230
1.0
 70
     8
 71
     3
 72
     9
 73
     5
 74
     0
 42
0.00000001
 43
0.00000001
 12
1.0
 22
0.0
 32
0.0
 13
1.0
 23
0.0
 33
0.0
 40
0.0
 40
0.0
 40
0.0
 40
0.0
 40
0.2575513451038309
 40
1.0
 40
1.0
 40
1.0
 40
1.0
 10
452.9259291138083
 20
212.7788336895737
 30
0.0
 10
452.6923890361999
 20
212.8462489123486
 30
0.0
 10
451.7856180872294
 20
213.1080034092925
 30
0.0
 10
450.8435379261089
 20
213.1753868970851
 30
0.0
 10
450.1440917776807
 20
213.2254156769589
 30
0.0
  0
LINE
  5
12C
330
1F
100
AcDbEntity
  8
0
  6
Continuous
 62
     7
370
    15
100
AcDbLine
 10
450.1440917777
 20
213.225415677
 30
0.0
 11
454.9847068812
 21
213.225415677
 31
0.0
  0
SPLINE
  5
12D
330
1F
100
AcDbEntity
  8
0
  6
Continuous
 62
     7
370
    15
100
AcDbSpline
210
0.0
220
0.0
230
1.0
 70
     8
 71
     3
 72
     9
 73
     5
 74
     0
 42
0.00000001
 43
0.00000001
 12
1.0
 22
0.0
 32
0.0
 13
1.0
 23
0.0
 33
0.0
 40
0.0
 40
0.0
 40
0.0
 40
0.0
 40
0.2575513451038187
 40
1.0
 40
1.0
 40
1.0
 40
1.0
 10
452.9259291138083
 20
208.4719976643441
 30
0.0
 10
452.6923890361999
 20
208.4045824415692
 30
0.0
 10
451.7856180872295
 20
208.1428279446254
 30
0.0
 10
450.843537926109
 20
208.0754444568327
 30
0.0
 10
450.1440917776807
 20
208.0254156769589
 30
0.0
  0
SPLINE
  5
12E
330
1F
100
AcDbEntity
  8
0
  6
Continuous
 62
     7
370
    15
100
AcDbSpline
210
0.0
220
0.0
230
1.0
 70
     8
 71
     3
 72
     9
 73
     5
 74
     0
 42
0.00000001
 43
0.00000001
 12
1.0
 22
0.0
 32
0.0
 13
1.0
 23
0.0
 33
0.0
 40
0.0
 40
0.0
 40
0.0
 40
0.0
 40
0.2686336050555466
 40
1.0
 40
1.0
 40
1.0
 40
1.0
 10
450.1440917776807
 20
208.0254156769589
 30
0.0
 10
449.8911449229008
 20
208.0320446295434
 30
0.0
 10
448.9495395168028
 20
208.0567211869797
 30
0.0
 10
448.0327577888655
 20
208.2965759505797
 30
0.0
 10
447.3622544415531
 20
208.4719976643441
 30
0.0
  0
LINE
  5
12F
330
1F
100
AcDbEntity
  8
0
  6
Continuous
 62
     7
370
    15
100
AcDbLine
 10
447.3622544416
 20
212.7788336896
 30
0.0
 11
447.3622544416
 21
208.4719976643
 31
0.0
  0
SPLINE
  5
130
330
1F
100
AcDbEntity
  8
0
  6
Continuous
 62
     7
370
    15
100
AcDbSpline
210
0.0
220
0.0
230
1.0
 70
     8
 71
     3
 72
     9
 73
     5
 74
     0
 42
0.00000001
 43
0.00000001
 12
1.0
 22
0.0
 32
0.0
 13
1.0
 23
0.0
 33
0.0
 40
0.0
 40
0.0
 40
0.0
 40
0.0
 40
0.2686336050555468
 40
1.0
 40
1.0
 40
1.0
 40
1.0
 10
450.1440917776807
 20
213.2254156769589
 30
0.0
 10
449.8911449229008
 20
213.2187867243744
 30
0.0
 10
448.9495395168028
 20
213.1941101669381
 30
0.0
 10
448.0327577888655
 20
212.9542554033381
 30
0.0
 10
447.3622544415531
 20
212.7788336895737
 30
0.0
  0
SPLINE
  5
131
330
1F
100
AcDbEntity
  8
0
  6
Continuous
 62
     7
370
    15
100
AcDbSpline
210
0.0
220
0.0
230
1.0
 70
     8
 71
     3
 72
     9
 73
     5
 74
     0
 42
0.00000001
 43
0.00000001
 12
1.0
 22
0.0
 32
0.0
 13
1.0
 23
0.0
 33
0.0
 40
0.0
 40
0.0
 40
0.0
 40
0.0
 40
0.070200576703451
 40
1.0
 40
1.0
 40
1.0
 40
1.0
 10
446.6391948727726
 20
213.2254156769589
 30
0.0
 10
446.6563356628513
 20
213.2249695606913
 30
0.0
 10
446.900504455811
 20
213.2186146803109
 30
0.0
 10
447.1397780197721
 20
212.9907251984154
 30
0.0
 10
447.3622544415531
 20
212.7788336895737
 30
0.0
  0
LINE
  5
132
330
1F
100
AcDbEntity
  8
0
  6
Continuous
 62
     7
370
    15
100
AcDbLine
 10
450.1440917777
 20
213.225415677
 30
0.0
 11
446.6391948728
 21
213.225415677
 31
0.0
  0
SPLINE
  5
133
330
1F
100
AcDbEntity
  8
0
  6
Continuous
 62
     7
370
    15
100
AcDbSpline
210
0.0
220
0.0
230
1.0
 70
     8
 71
     3
 72
     9
 73
     5
 74
     0
 42
0.00000001
 43
0.00000001
 12
1.0
 22
0.0
 32
0.0
 13
1.0
 23
0.0
 33
0.0
 40
0.0
 40
0.0
 40
0.0
 40
0.0
 40
0.070200576703451
 40
1.0
 40
1.0
 40
1.0
 40
1.0
 10
446.6391948727726
 20
208.0254156769589
 30
0.0
 10
446.6563356628513
 20
208.0258617932265
 30
0.0
 10
446.900504455811
 20
208.0322166736069
 30
0.0
 10
447.1397780197721
 20
208.2601061555024
 30
0.0
 10
447.3622544415531
 20
208.4719976643441
 30
0.0
  0
LINE
  5
134
330
1F
100
AcDbEntity
  8
0
  6
Continuous
 62
     7
370
    15
100
AcDbLine
 10
445.916135304
 20
212.7788336896
 30
0.0
 11
446.6391948728
 21
213.225415677
 31
0.0
  0
LINE
  5
135
330
1F
100
AcDbEntity
  8
0
  6
Continuous
 62
     7
370
    15
100
AcDbLine
 10
445.916135304
 20
208.4719976643
 30
0.0
 11
446.3153895256
 21
208.225406994
 31
0.0
  0
LINE
  5
136
330
1F
100
AcDbEntity
  8
0
  6
Continuous
 62
     7
370
    15
100
AcDbLine
 10
445.916135304
 20
212.7788336896
 30
0.0
 11
445.916135304
 21
208.4719976643
 31
0.0
  0
LINE
  5
137
330
1F
100
AcDbEntity
  8
0
  6
Continuous
 62
     7
370
    15
100
AcDbLine
 10
457.0434846485
 20
208.4719976643
 30
0.0
 11
456.6442304269
 21
208.225406994
 31
0.0
  0
LINE
  5
138
330
1F
100
AcDbEntity
  8
0
  6
Continuous
 62
     7
370
    15
100
AcDbLine
 10
457.0434846485
 20
212.7788336896
 30
0.0
 11
456.6442304269
 21
213.0254243599
 31
0.0
  0
LINE
  5
139
330
1F
100
AcDbEntity
  8
0
  6
Continuous
 62
     7
370
    15
100
AcDbLine
 10
454.9847068812
 20
213.225415677
 30
0.0
 11
456.4798099762
 21
213.225415677
 31
0.0
  0
LINE
  5
13A
330
1F
100
AcDbEntity
  8
0
  6
Continuous
 62
     7
370
    15
100
AcDbLine
 10
446.4798099762
 20
213.225415677
 30
0.0
 11
446.6391948728
 21
213.225415677
 31
0.0
  0
LINE
  5
13B
330
1F
100
AcDbEntity
  8
0
  6
Continuous
 62
     7
370
    15
100
AcDbLine
 10
450.0924805075
 20
218.2288336896
 30
0.0
 11
451.3133909049
 21
218.425415677
 31
0.0
  0
LINE
  5
13C
330
1F
100
AcDbEntity
  8
0
  6
Continuous
 62
     7
370
    15
100
AcDbLine
 10
454.4993199829
 20
218.425415677
 30
0.0
 11
455.6396478646
 21
218.2288336896
 31
0.0
  0
LINE
  5
13D
330
1F
100
AcDbEntity
  8
0
  6
Continuous
 62
     7
370
    15
100
AcDbLine
 10
455.6396478646
 20
218.2288336896
 30
0.0
 11
455.6396478646
 21
213.9219976643
 31
0.0
  0
SPLINE
  5
13E
330
1F
100
AcDbEntity
  8
0
  6
Continuous
 62
     7
370
    15
100
AcDbSpline
210
0.0
220
0.0
230
1.0
 70
     8
 71
     3
 72
     9
 73
     5
 74
     0
 42
0.00000001
 43
0.00000001
 12
1.0
 22
0.0
 32
0.0
 13
1.0
 23
0.0
 33
0.0
 40
0.0
 40
0.0
 40
0.0
 40
0.0
 40
0.0702005767034144
 40
1.0
 40
1.0
 40
1.0
 40
1.0
 10
452.8660641860164
 20
213.4754156769589
 30
0.0
 10
452.9318145303208
 20
213.4758617932265
 30
0.0
 10
453.868421427187
 20
213.482216673607
 30
0.0
 10
454.7862507186696
 20
213.7101061555024
 30
0.0
 10
455.6396478645748
 20
213.9219976643441
 30
0.0
  0
LINE
  5
13F
330
1F
100
AcDbEntity
  8
0
  6
Continuous
 62
     7
370
    15
100
AcDbLine
 10
450.0924805075
 20
213.9219976643
 30
0.0
 11
452.866064186
 21
213.475415677
 31
0.0
  0
LINE
  5
140
330
1F
100
AcDbEntity
  8
0
  6
Continuous
 62
     7
370
    15
100
AcDbLine
 10
450.0924805075
 20
218.2288336896
 30
0.0
 11
450.0924805075
 21
213.9219976643
 31
0.0
  0
SPLINE
  5
141
330
1F
100
AcDbEntity
  8
0
  6
Continuous
 62
     7
370
    15
100
AcDbSpline
210
0.0
220
0.0
230
1.0
 70
     8
 71
     3
 72
     9
 73
     5
 74
     0
 42
0.00000001
 43
0.00000001
 12
1.0
 22
0.0
 32
0.0
 13
1.0
 23
0.0
 33
0.0
 40
0.0
 40
0.0
 40
0.0
 40
0.0
 40
0.2575513451038228
 40
1.0
 40
1.0
 40
1.0
 40
1.0
 10
450.092480507458
 20
213.9219976643441
 30
0.0
 10
449.9178676983872
 20
213.8545824415692
 30
0.0
 10
449.2398948887309
 20
213.5928279446254
 30
0.0
 10
448.5355221532773
 20
213.5254444568328
 30
0.0
 10
448.0125615632941
 20
213.4754156769589
 30
0.0
  0
LINE
  5
142
330
1F
100
AcDbEntity
  8
0
  6
Continuous
 62
     7
370
    15
100
AcDbLine
 10
452.866064186
 20
213.475415677
 30
0.0
 11
448.0125615633
 21
213.475415677
 31
0.0
  0
SPLINE
  5
143
330
1F
100
AcDbEntity
  8
0
  6
Continuous
 62
     7
370
    15
100
AcDbSpline
210
0.0
220
0.0
230
1.0
 70
     8
 71
     3
 72
     9
 73
     5
 74
     0
 42
0.00000001
 43
0.00000001
 12
1.0
 22
0.0
 32
0.0
 13
1.0
 23
0.0
 33
0.0
 40
0.0
 40
0.0
 40
0.0
 40
0.0
 40
0.925052869331685
 40
1.0
 40
1.0
 40
1.0
 40
1.0
 10
450.092480507458
 20
218.2288336895737
 30
0.0
 10
449.9193805541908
 20
218.3073874023386
 30
0.0
 10
449.7322561648655
 20
218.3923054814768
 30
0.0
 10
449.5377815617035
 20
218.4231071781726
 30
0.0
 10
449.5232062482087
 20
218.4254156769597
 30
0.0
  0
LINE
  5
144
330
1F
100
AcDbEntity
  8
0
  6
Continuous
 62
     7
370
    15
100
AcDbLine
 10
455.6396478646
 20
218.2288336896
 30
0.0
 11
455.9449937941
 21
218.425415677
 31
0.0
  0
LINE
  5
145
330
1F
100
AcDbEntity
  8
0
  6
Continuous
 62
     7
370
    15
100
AcDbLine
 10
455.6396478646
 20
213.9219976643
 30
0.0
 11
456.333312599
 21
213.475415677
 31
0.0
  0
LINE
  5
146
330
1F
100
AcDbEntity
  8
0
  6
Continuous
 62
     7
370
    15
100
AcDbLine
 10
456.333312599
 20
213.475415677
 30
0.0
 11
452.866064186
 21
213.475415677
 31
0.0
  0
SPLINE
  5
147
330
1F
100
AcDbEntity
  8
0
  6
Continuous
 62
     7
370
    15
100
AcDbSpline
210
0.0
220
0.0
230
1.0
 70
     8
 71
     3
 72
     9
 73
     5
 74
     0
 42
0.00000001
 43
0.00000001
 12
1.0
 22
0.0
 32
0.0
 13
1.0
 23
0.0
 33
0.0
 40
0.0
 40
0.0
 40
0.0
 40
0.0
 40
0.2686336050555444
 40
1.0
 40
1.0
 40
1.0
 40
1.0
 10
448.0125615632941
 20
213.4754156769589
 30
0.0
 10
447.8234387313115
 20
213.4820446295434
 30
0.0
 10
447.1194209598063
 20
213.5067211869797
 30
0.0
 10
446.4339633096282
 20
213.7465759505797
 30
0.0
 10
445.9326426191303
 20
213.9219976643441
 30
0.0
  0
LINE
  5
148
330
1F
100
AcDbEntity
  8
0
  6
Continuous
 62
     7
370
    15
100
AcDbLine
 10
445.9326426191
 20
218.2288336896
 30
0.0
 11
445.9326426191
 21
213.9219976643
 31
0.0
  0
LINE
  5
149
330
1F
100
AcDbEntity
  8
0
  6
Continuous
 62
     7
370
    15
100
AcDbLine
 10
446.6564445413
 20
218.425415677
 30
0.0
 11
445.9326426191
 21
218.2288336896
 31
0.0
  0
LINE
  5
14A
330
1F
100
AcDbEntity
  8
0
  6
Continuous
 62
     7
370
    15
100
AcDbLine
 10
456.6302853723
 20
218.5022717942
 30
0.0
 11
457.0269773334
 21
218.2288336896
 31
0.0
  0
LINE
  5
14B
330
1F
100
AcDbEntity
  8
0
  6
Continuous
 62
     7
370
    15
100
AcDbLine
 10
457.0269773334
 20
218.2288336896
 30
0.0
 11
457.0269773334
 21
213.9219976643
 31
0.0
  0
SPLINE
  5
14C
330
1F
100
AcDbEntity
  8
0
  6
Continuous
 62
     7
370
    15
100
AcDbSpline
210
0.0
220
0.0
230
1.0
 70
     8
 71
     3
 72
     9
 73
     5
 74
     0
 42
0.00000001
 43
0.00000001
 12
1.0
 22
0.0
 32
0.0
 13
1.0
 23
0.0
 33
0.0
 40
0.0
 40
0.0
 40
0.0
 40
0.0
 40
0.0702005767034
 40
1.0
 40
1.0
 40
1.0
 40
1.0
 10
456.3333125989694
 20
213.4754156769589
 30
0.0
 10
456.3497565575458
 20
213.4758617932265
 30
0.0
 10
456.5839990573737
 20
213.482216673607
 30
0.0
 10
456.8135453359365
 20
213.7101061555024
 30
0.0
 10
457.0269773333641
 20
213.9219976643441
 30
0.0
  0
LINE
  5
14D
330
1F
100
AcDbEntity
  8
0
  6
Continuous
 62
     7
370
    15
100
AcDbLine
 10
446.3293345802
 20
213.6485595597
 30
0.0
 11
445.9326426191
 21
213.9219976643
 31
0.0
  0
LINE
  5
14E
330
1F
100
AcDbEntity
  8
0
  6
Continuous
 62
     7
370
    15
100
AcDbLine
 10
448.0125615633
 20
213.475415677
 30
0.0
 11
446.4798099762
 21
213.475415677
 31
0.0
  0
LINE
  5
14F
330
1F
100
AcDbEntity
  8
0
  6
Continuous
 62
     7
370
    15
100
AcDbLine
 10
446.3293345802
 20
218.5022717942
 30
0.0
 11
445.9326426191
 21
218.2288336896
 31
0.0
  0
LINE
  5
150
330
1F
100
AcDbEntity
  8
0
  6
Continuous
 62
     7
370
    15
100
AcDbLine
 10
456.4798099762
 20
213.475415677
 30
0.0
 11
456.333312599
 21
213.475415677
 31
0.0
  0
LINE
  5
151
330
1F
100
AcDbEntity
  8
0
  6
Continuous
 62
     7
370
    15
100
AcDbLine
 10
697.4798099762
 20
883.4143995244
 30
0.0
 11
700.0274218765
 21
884.0360136873
 31
0.0
  0
LINE
  5
152
330
1F
100
AcDbEntity
  8
0
  6
Continuous
 62
     7
370
    15
100
AcDbLine
 10
694.932198076
 20
884.0360136873
 30
0.0
 11
697.4798099762
 21
883.4143995244
 31
0.0
  0
LINE
  5
153
330
1F
100
AcDbEntity
  8
0
  6
Continuous
 62
     7
370
    15
100
AcDbLine
 10
697.4798099762
 20
884.9107712061
 30
0.0
 11
697.4798099762
 21
883.4143995244
 31
0.0
  0
LINE
  5
154
330
1F
100
AcDbEntity
  8
0
  6
Continuous
 62
     7
370
    15
100
AcDbLine
 10
319.4798099763
 20
883.4143995244
 30
0.0
 11
322.0274218765
 21
884.0360136873
 31
0.0
  0
LINE
  5
155
330
1F
100
AcDbEntity
  8
0
  6
Continuous
 62
     7
370
    15
100
AcDbLine
 10
316.932198076
 20
884.0360136873
 30
0.0
 11
319.4798099763
 21
883.4143995244
 31
0.0
  0
LINE
  5
156
330
1F
100
AcDbEntity
  8
0
  6
Continuous
 62
     7
370
    15
100
AcDbLine
 10
319.4798099763
 20
884.9107712061
 30
0.0
 11
319.4798099763
 21
883.4143995244
 31
0.0
  0
LINE
  5
157
330
1F
100
AcDbEntity
  8
0
  6
Continuous
 62
     7
370
    15
100
AcDbLine
 10
308.4798099763
 20
748.8611384502
 30
0.0
 11
308.4798099763
 21
757.9896929038
 31
0.0
  0
LINE
  5
158
330
1F
100
AcDbEntity
  8
0
  6
Continuous
 62
     7
370
    15
100
AcDbLine
 10
708.4798099763
 20
748.8611384502
 30
0.0
 11
708.4798099763
 21
757.9896929038
 31
0.0
  0
LINE
  5
159
330
1F
100
AcDbEntity
  8
0
  6
Continuous
 62
     7
370
    15
100
AcDbLine
 10
708.4798099763
 20
704.6611384502
 30
0.0
 11
708.4798099763
 21
748.8611384502
 31
0.0
  0
LINE
  5
15A
330
1F
100
AcDbEntity
  8
0
  6
Continuous
 62
     7
370
    15
100
AcDbLine
 10
308.4798099763
 20
704.6611384502
 30
0.0
 11
308.4798099763
 21
748.8611384502
 31
0.0
  0
LINE
  5
15B
330
1F
100
AcDbEntity
  8
0
  6
Continuous
 62
     7
370
    15
100
AcDbLine
 10
329.9798099763
 20
877.5198386062
 30
0.0
 11
330.3798099763
 21
877.5198386062
 31
0.0
  0
LINE
  5
15C
330
1F
100
AcDbEntity
  8
0
  6
Continuous
 62
     7
370
    15
100
AcDbLine
 10
330.3798099763
 20
877.5198386062
 30
0.0
 11
330.3798099763
 21
879.0152464548
 31
0.0
  0
LINE
  5
15D
330
1F
100
AcDbEntity
  8
0
  6
Continuous
 62
     7
370
    15
100
AcDbLine
 10
686.5798099763
 20
879.0152464548
 30
0.0
 11
684.8221889323
 21
879.0152464548
 31
0.0
  0
LINE
  5
15E
330
1F
100
AcDbEntity
  8
0
  6
Continuous
 62
     7
370
    15
100
AcDbLine
 10
332.1374310202
 20
879.0152464548
 30
0.0
 11
330.3798099763
 21
879.0152464548
 31
0.0
  0
LINE
  5
15F
330
1F
100
AcDbEntity
  8
0
  6
Continuous
 62
     7
370
    15
100
AcDbLine
 10
686.5798099763
 20
879.0152464548
 30
0.0
 11
686.5798099763
 21
877.5198386062
 31
0.0
  0
LINE
  5
160
330
1F
100
AcDbEntity
  8
0
  6
Continuous
 62
     7
370
    15
100
AcDbLine
 10
686.5798099763
 20
877.5198386062
 30
0.0
 11
686.9798099763
 21
877.5198386062
 31
0.0
  0
LINE
  5
161
330
1F
100
AcDbEntity
  8
0
  6
Continuous
 62
     7
370
    15
100
AcDbLine
 10
686.9798099763
 20
877.5198386062
 30
0.0
 11
686.9798099763
 21
877.882361721
 31
0.0
  0
LINE
  5
162
330
1F
100
AcDbEntity
  8
0
  6
Continuous
 62
     7
370
    15
100
AcDbLine
 10
329.9798099763
 20
877.882361721
 30
0.0
 11
329.9798099763
 21
877.5198386062
 31
0.0
  0
LINE
  5
163
330
1F
100
AcDbEntity
  8
0
  6
Continuous
 62
     7
370
    15
100
AcDbLine
 10
708.4798099763
 20
757.9896929038
 30
0.0
 11
708.4798099763
 21
877.882361721
 31
0.0
  0
LINE
  5
164
330
1F
100
AcDbEntity
  8
0
  6
Continuous
 62
     7
370
    15
100
AcDbLine
 10
308.4798099763
 20
757.9896929038
 30
0.0
 11
308.4798099763
 21
877.882361721
 31
0.0
  0
LINE
  5
165
330
1F
100
AcDbEntity
  8
0
  6
Continuous
 62
     7
370
    15
100
AcDbLine
 10
708.4798099763
 20
698.425415677
 30
0.0
 11
708.4798099763
 21
704.6611384502
 31
0.0
  0
LINE
  5
166
330
1F
100
AcDbEntity
  8
0
  6
Continuous
 62
     7
370
    15
100
AcDbLine
 10
708.4798099763
 20
698.425415677
 30
0.0
 11
308.4798099763
 21
698.425415677
 31
0.0
  0
LINE
  5
167
330
1F
100
AcDbEntity
  8
0
  6
Continuous
 62
     7
370
    15
100
AcDbLine
 10
308.4798099763
 20
698.425415677
 30
0.0
 11
308.4798099763
 21
704.6611384502
 31
0.0
  0
ARC
  5
168
330
1F
100
AcDbEntity
  8
0
  6
Continuous
 62
     7
370
    15
100
AcDbCircle
 10
707.7580917011
 20
885.2939539034
 30
0.0
 40
0.7361578733513647
100
AcDbArc
 50
11.3669030061
 51
71.3350719439
  0
LINE
  5
169
330
1F
100
AcDbEntity
  8
0
  6
Continuous
 62
     7
370
    15
100
AcDbLine
 10
708.4798099763
 20
885.4390440333
 30
0.0
 11
708.4798099763
 21
879.543519282
 31
0.0
  0
LINE
  5
16A
330
1F
100
AcDbEntity
  8
0
  6
Continuous
 62
     7
370
    15
100
AcDbLine
 10
686.9798099763
 20
879.543519282
 30
0.0
 11
686.9798099763
 21
885.4390440333
 31
0.0
  0
LINE
  5
16B
330
1F
100
AcDbEntity
  8
0
  6
Continuous
 62
     7
370
    15
100
AcDbLine
 10
687.013389766
 20
885.5932803364
 30
0.0
 11
686.9798099763
 21
885.4390440333
 31
0.0
  0
LWPOLYLINE
  5
16C
330
1F
100
AcDbEntity
  8
0
  6
Continuous
 62
     7
370
    15
100
AcDbPolyline
 90
       18
 70
   128
 43
0.0
 10
697.4798099763
 20
884.9107712061
 10
698.4732245583
 20
884.8322904163
 10
699.3324729963
 20
884.6074473123
 10
699.9415090275
 20
884.2666082014
 10
700.2180789611
 20
883.855805294
 10
700.124830495
 20
883.4305197991
 10
699.6743573513
 20
883.0481888795
 10
698.9274984242
 20
882.7604484443
 10
697.9851211502
 20
882.6061594338
 10
696.9744988023
 20
882.6061594338
 10
696.0321215283
 20
882.7604484443
 10
695.2852626012
 20
883.0481888795
 10
694.8347894575
 20
883.4305197991
 10
694.7415409914
 20
883.855805294
 10
695.018110925
 20
884.2666082014
 10
695.6271469562
 20
884.6074473123
 10
696.4863953942
 20
884.8322904163
 10
697.4798099763
 20
884.9107712061
  0
LINE
  5
16D
330
1F
100
AcDbEntity
  8
0
  6
Continuous
 62
     7
370
    15
100
AcDbLine
 10
686.9798099763
 20
885.4390440333
 30
0.0
 11
686.9798099763
 21
885.5852683235
 31
0.0
  0
LINE
  5
16E
330
1F
100
AcDbEntity
  8
0
  6
Continuous
 62
     7
370
    15
100
AcDbLine
 10
708.4798099763
 20
886.1640902629
 30
0.0
 11
708.4798099763
 21
885.4390440333
 31
0.0
  0
LWPOLYLINE
  5
16F
330
1F
100
AcDbEntity
  8
0
  6
Continuous
 62
     7
370
    15
100
AcDbPolyline
 90
        3
 70
   128
 43
0.0
 10
708.4287190041
 20
886.3539176663
 10
708.4413805371
 20
886.3289877284
 10
708.4798099763
 20
886.1640902629
  0
LWPOLYLINE
  5
170
330
1F
100
AcDbEntity
  8
0
  6
Continuous
 62
     7
370
    15
100
AcDbPolyline
 90
        3
 70
   128
 43
0.0
 10
329.9798099763
 20
885.3545203809
 10
329.9413805371
 20
885.5194178465
 10
329.8891748723
 20
885.6060850128
  0
LINE
  5
171
330
1F
100
AcDbEntity
  8
0
  6
Continuous
 62
     7
370
    15
100
AcDbLine
 10
329.9798099763
 20
885.3545203809
 30
0.0
 11
329.9798099763
 21
879.543519282
 31
0.0
  0
LINE
  5
172
330
1F
100
AcDbEntity
  8
0
  6
Continuous
 62
     7
370
    15
100
AcDbLine
 10
308.4798099763
 20
879.543519282
 30
0.0
 11
308.4798099763
 21
885.3545203809
 31
0.0
  0
ARC
  5
173
330
1F
100
AcDbEntity
  8
0
  6
Continuous
 62
     7
370
    15
100
AcDbCircle
 10
309.2455886395
 20
885.1881845389
 30
0.0
 40
0.7836354850211051
100
AcDbArc
 50
103.8205504332
 51
167.745070213
  0
LWPOLYLINE
  5
174
330
1F
100
AcDbEntity
  8
0
  6
Continuous
 62
     7
370
    15
100
AcDbPolyline
 90
       18
 70
   128
 43
0.0
 10
319.4798099763
 20
882.5863707665
 10
318.4863953942
 20
882.6648515564
 10
317.6271469562
 20
882.8896946603
 10
317.018110925
 20
883.2305337713
 10
316.7415409914
 20
883.6413366787
 10
316.8347894575
 20
884.0666221735
 10
317.2852626012
 20
884.4489530932
 10
318.0321215283
 20
884.7366935283
 10
318.9744988023
 20
884.8909825388
 10
319.9851211502
 20
884.8909825388
 10
320.9274984242
 20
884.7366935283
 10
321.6743573513
 20
884.4489530932
 10
322.124830495
 20
884.0666221735
 10
322.2180789611
 20
883.6413366787
 10
321.9415090275
 20
883.2305337713
 10
321.3324729963
 20
882.8896946603
 10
320.4732245583
 20
882.6648515564
 10
319.4798099763
 20
882.5863707665
  0
LINE
  5
175
330
1F
100
AcDbEntity
  8
0
  6
Continuous
 62
     7
370
    15
100
AcDbLine
 10
329.9798099763
 20
885.5852683235
 30
0.0
 11
329.9798099763
 21
885.3545203809
 31
0.0
  0
LINE
  5
176
330
1F
100
AcDbEntity
  8
0
  6
Continuous
 62
     7
370
    15
100
AcDbLine
 10
308.4798099763
 20
885.3545203809
 30
0.0
 11
308.4798099763
 21
886.0795666106
 31
0.0
  0
LWPOLYLINE
  5
177
330
1F
100
AcDbEntity
  8
0
  6
Continuous
 62
     7
370
    15
100
AcDbPolyline
 90
        3
 70
   128
 43
0.0
 10
308.4798099763
 20
886.0795666106
 10
308.5182394154
 20
886.2444640761
 10
308.5566843204
 20
886.3116558901
  0
ARC
  5
178
330
1F
100
AcDbEntity
  8
0
  6
Continuous
 62
     7
370
    15
100
AcDbCircle
 10
319.071943354
 20
886.6470244212
 30
0.0
 40
3.360451171461483
100
AcDbArc
 50
228.9939093617
 51
276.9713245754
  0
ARC
  5
179
330
1F
100
AcDbEntity
  8
0
  6
Continuous
 62
     7
370
    15
100
AcDbCircle
 10
319.8876765985
 20
886.6470244212
 30
0.0
 40
3.360451171461483
100
AcDbArc
 50
263.0286754246
 51
311.0060906383
  0
ARC
  5
17A
330
1F
100
AcDbEntity
  8
0
  6
Continuous
 62
     7
370
    15
100
AcDbCircle
 10
697.4798099763
 20
887.4770775651
 30
0.0
 40
4.261046713036373
100
AcDbArc
 50
232.1801728022
 51
307.8198271978
  0
LINE
  5
17B
330
1F
100
AcDbEntity
  8
0
  6
Continuous
 62
     7
370
    15
100
AcDbLine
 10
686.9798099763
 20
879.543519282
 30
0.0
 11
686.9798099763
 21
877.882361721
 31
0.0
  0
LINE
  5
17C
330
1F
100
AcDbEntity
  8
0
  6
Continuous
 62
     7
370
    15
100
AcDbLine
 10
708.4798099763
 20
877.882361721
 30
0.0
 11
708.4798099763
 21
879.543519282
 31
0.0
  0
LINE
  5
17D
330
1F
100
AcDbEntity
  8
0
  6
Continuous
 62
     7
370
    15
100
AcDbLine
 10
308.4798099763
 20
879.543519282
 30
0.0
 11
308.4798099763
 21
877.882361721
 31
0.0
  0
LINE
  5
17E
330
1F
100
AcDbEntity
  8
0
  6
Continuous
 62
     7
370
    15
100
AcDbLine
 10
329.9798099763
 20
877.882361721
 30
0.0
 11
329.9798099763
 21
879.543519282
 31
0.0
  0
LINE
  5
17F
330
1F
100
AcDbEntity
  8
0
  6
Continuous
 62
     7
370
    15
100
AcDbLine
 10
708.4798099762
 20
948.425415677
 30
0.0
 11
308.4798099762
 21
948.425415677
 31
0.0
  0
LINE
  5
180
330
1F
100
AcDbEntity
  8
0
  6
Continuous
 62
     7
370
    15
100
AcDbLine
 10
708.4798099762
 20
948.425415677
 30
0.0
 11
708.4798099762
 21
931.3539965361
 31
0.0
  0
LINE
  5
181
330
1F
100
AcDbEntity
  8
0
  6
Continuous
 62
     7
370
    15
100
AcDbLine
 10
308.4798099762
 20
948.425415677
 30
0.0
 11
308.4798099762
 21
931.3539965361
 31
0.0
  0
LINE
  5
182
330
1F
100
AcDbEntity
  8
0
  6
Continuous
 62
     7
370
    15
100
AcDbLine
 10
708.4798099762
 20
931.3539965361
 30
0.0
 11
708.4798099762
 21
900.3914410844
 31
0.0
  0
LINE
  5
183
330
1F
100
AcDbEntity
  8
0
  6
Continuous
 62
     7
370
    15
100
AcDbLine
 10
308.4798099762
 20
931.3539965361
 30
0.0
 11
308.4798099762
 21
900.3914410844
 31
0.0
  0
LINE
  5
184
330
1F
100
AcDbEntity
  8
0
  6
Continuous
 62
     7
370
    15
100
AcDbLine
 10
708.4798099762
 20
900.3914410844
 30
0.0
 11
708.4798099762
 21
894.5871667809
 31
0.0
  0
LINE
  5
185
330
1F
100
AcDbEntity
  8
0
  6
Continuous
 62
     7
370
    15
100
AcDbLine
 10
308.4798099762
 20
900.3914410844
 30
0.0
 11
308.4798099762
 21
894.5871667809
 31
0.0
  0
LWPOLYLINE
  5
186
330
1F
100
AcDbEntity
  8
0
  6
Continuous
 62
     7
370
    15
100
AcDbPolyline
 90
        9
 70
   128
 43
0.0
 10
330.9798099762
 20
879.7818528811
 10
331.0182394154
 20
879.6169554155
 10
331.1320509112
 20
879.4583948671
 10
331.3168707516
 20
879.3122646288
 10
331.5655964139
 20
879.1841804036
 10
331.8686695102
 20
879.0790643966
 10
332.2144431115
 20
879.0009561569
 10
332.5896293322
 20
878.9528573404
 10
332.9798099762
 20
878.9366163576
  0
LINE
  5
187
330
1F
100
AcDbEntity
  8
0
  6
Continuous
 62
     7
370
    15
100
AcDbLine
 10
330.9798099762
 20
884.8532720219
 30
0.0
 11
330.9798099762
 21
879.7818528811
 31
0.0
  0
LWPOLYLINE
  5
188
330
1F
100
AcDbEntity
  8
0
  6
Continuous
 62
     7
370
    15
100
AcDbPolyline
 90
        9
 70
   128
 43
0.0
 10
328.9798099762
 20
885.6985085454
 10
329.3699906203
 20
885.6822675626
 10
329.745176841
 20
885.6341687461
 10
330.0909504423
 20
885.5560605064
 10
330.3940235386
 20
885.4509444994
 10
330.6427492009
 20
885.3228602743
 10
330.8275690413
 20
885.1767300359
 10
330.9413805371
 20
885.0181694875
 10
330.9798099762
 20
884.8532720219
  0
LINE
  5
189
330
1F
100
AcDbEntity
  8
0
  6
Continuous
 62
     7
370
    15
100
AcDbLine
 10
328.9798099762
 20
885.6985085454
 30
0.0
 11
310.4798099762
 21
885.6985085454
 31
0.0
  0
LWPOLYLINE
  5
18A
330
1F
100
AcDbEntity
  8
0
  6
Continuous
 62
     7
370
    15
100
AcDbPolyline
 90
        9
 70
   128
 43
0.0
 10
308.4798099762
 20
886.5437450689
 10
308.5182394154
 20
886.3788476034
 10
308.6320509112
 20
886.2202870549
 10
308.8168707516
 20
886.0741568166
 10
309.0655964139
 20
885.9460725915
 10
309.3686695102
 20
885.8409565844
 10
309.7144431115
 20
885.7628483447
 10
310.0896293322
 20
885.7147495282
 10
310.4798099762
 20
885.6985085454
  0
LINE
  5
18B
330
1F
100
AcDbEntity
  8
0
  6
Continuous
 62
     7
370
    15
100
AcDbLine
 10
308.4798099762
 20
894.5871667809
 30
0.0
 11
308.4798099762
 21
886.5437450689
 31
0.0
  0
LINE
  5
18C
330
1F
100
AcDbEntity
  8
0
  6
Continuous
 62
     7
370
    15
100
AcDbLine
 10
708.4798099762
 20
894.5871667809
 30
0.0
 11
708.4798099762
 21
886.5437450689
 31
0.0
  0
LWPOLYLINE
  5
18D
330
1F
100
AcDbEntity
  8
0
  6
Continuous
 62
     7
370
    15
100
AcDbPolyline
 90
        9
 70
   128
 43
0.0
 10
706.4798099762
 20
885.6985085454
 10
706.8699906203
 20
885.7147495282
 10
707.245176841
 20
885.7628483447
 10
707.5909504423
 20
885.8409565844
 10
707.8940235386
 20
885.9460725915
 10
708.1427492009
 20
886.0741568166
 10
708.3275690413
 20
886.2202870549
 10
708.4413805371
 20
886.3788476034
 10
708.4798099762
 20
886.5437450689
  0
LINE
  5
18E
330
1F
100
AcDbEntity
  8
0
  6
Continuous
 62
     7
370
    15
100
AcDbLine
 10
706.4798099762
 20
885.6985085454
 30
0.0
 11
687.9798099762
 21
885.6985085454
 31
0.0
  0
LWPOLYLINE
  5
18F
330
1F
100
AcDbEntity
  8
0
  6
Continuous
 62
     7
370
    15
100
AcDbPolyline
 90
        9
 70
   128
 43
0.0
 10
685.9798099762
 20
884.8532720219
 10
686.0182394154
 20
885.0181694875
 10
686.1320509112
 20
885.1767300359
 10
686.3168707516
 20
885.3228602743
 10
686.5655964139
 20
885.4509444994
 10
686.8686695102
 20
885.5560605064
 10
687.2144431115
 20
885.6341687461
 10
687.5896293322
 20
885.6822675626
 10
687.9798099762
 20
885.6985085454
  0
LINE
  5
190
330
1F
100
AcDbEntity
  8
0
  6
Continuous
 62
     7
370
    15
100
AcDbLine
 10
685.9798099762
 20
879.7818528811
 30
0.0
 11
685.9798099762
 21
884.8532720219
 31
0.0
  0
LWPOLYLINE
  5
191
330
1F
100
AcDbEntity
  8
0
  6
Continuous
 62
     7
370
    15
100
AcDbPolyline
 90
        9
 70
   128
 43
0.0
 10
683.9798099762
 20
878.9366163576
 10
684.3699906203
 20
878.9528573404
 10
684.745176841
 20
879.0009561569
 10
685.0909504423
 20
879.0790643966
 10
685.3940235386
 20
879.1841804036
 10
685.6427492009
 20
879.3122646288
 10
685.8275690413
 20
879.4583948671
 10
685.9413805371
 20
879.6169554155
 10
685.9798099762
 20
879.7818528811
  0
LINE
  5
192
330
1F
100
AcDbEntity
  8
0
  6
Continuous
 62
     7
370
    15
100
AcDbLine
 10
332.9798099762
 20
878.9366163576
 30
0.0
 11
683.9798099762
 21
878.9366163576
 31
0.0
  0
LINE
  5
193
330
1F
100
AcDbEntity
  8
0
  6
Continuous
 62
     7
370
    15
100
AcDbLine
 10
708.4798099762
 20
950.675415677
 30
0.0
 11
708.4798099762
 21
948.425415677
 31
0.0
  0
LINE
  5
194
330
1F
100
AcDbEntity
  8
0
  6
Continuous
 62
     7
370
    15
100
AcDbLine
 10
308.4798099762
 20
950.675415677
 30
0.0
 11
308.4798099762
 21
948.425415677
 31
0.0
  0
LINE
  5
195
330
1F
100
AcDbEntity
  8
0
  6
Continuous
 62
     7
370
    15
100
AcDbLine
 10
708.4798099762
 20
966.425415677
 30
0.0
 11
308.4798099762
 21
966.425415677
 31
0.0
  0
LINE
  5
196
330
1F
100
AcDbEntity
  8
0
  6
Continuous
 62
     7
370
    15
100
AcDbLine
 10
308.4798099762
 20
966.425415677
 30
0.0
 11
308.4798099762
 21
962.175415677
 31
0.0
  0
LINE
  5
197
330
1F
100
AcDbEntity
  8
0
  6
Continuous
 62
     7
370
    15
100
AcDbLine
 10
708.4798099762
 20
966.425415677
 30
0.0
 11
708.4798099762
 21
962.175415677
 31
0.0
  0
LINE
  5
198
330
1F
100
AcDbEntity
  8
0
  6
Continuous
 62
     7
370
    15
100
AcDbLine
 10
708.4798099762
 20
962.175415677
 30
0.0
 11
708.4798099762
 21
950.675415677
 31
0.0
  0
LINE
  5
199
330
1F
100
AcDbEntity
  8
0
  6
Continuous
 62
     7
370
    15
100
AcDbLine
 10
308.4798099762
 20
962.175415677
 30
0.0
 11
308.4798099762
 21
950.675415677
 31
0.0
  0
LINE
  5
19A
330
1F
100
AcDbEntity
  8
0
  6
Continuous
 62
     7
370
    15
100
AcDbLine
 10
318.4798099762
 20
977.925415677
 30
0.0
 11
325.9798099762
 21
977.925415677
 31
0.0
  0
LINE
  5
19B
330
1F
100
AcDbEntity
  8
0
  6
Continuous
 62
     7
370
    15
100
AcDbLine
 10
310.9798099762
 20
977.925415677
 30
0.0
 11
318.4798099762
 21
977.925415677
 31
0.0
  0
LINE
  5
19C
330
1F
100
AcDbEntity
  8
0
  6
Continuous
 62
     7
370
    15
100
AcDbLine
 10
698.4798099762
 20
977.925415677
 30
0.0
 11
705.9798099762
 21
977.925415677
 31
0.0
  0
LINE
  5
19D
330
1F
100
AcDbEntity
  8
0
  6
Continuous
 62
     7
370
    15
100
AcDbLine
 10
690.9798099762
 20
977.925415677
 30
0.0
 11
698.4798099762
 21
977.925415677
 31
0.0
  0
LINE
  5
19E
330
1F
100
AcDbEntity
  8
0
  6
Continuous
 62
     8
370
    15
100
AcDbLine
 10
313.7575074558
 20
698.425415677
 30
0.0
 11
313.7575074558
 21
695.925415677
 31
0.0
  0
LINE
  5
19F
330
1F
100
AcDbEntity
  8
0
  6
Continuous
 62
     8
370
    15
100
AcDbLine
 10
311.7546748181
 20
695.925415677
 30
0.0
 11
311.7546748181
 21
698.425415677
 31
0.0
  0
LINE
  5
1A0
330
1F
100
AcDbEntity
  8
0
  6
Continuous
 62
     8
370
    15
100
AcDbLine
 10
334.7574863633
 20
695.925415677
 30
0.0
 11
334.7574863633
 21
698.425415677
 31
0.0
  0
LINE
  5
1A1
330
1F
100
AcDbEntity
  8
0
  6
Continuous
 62
     8
370
    15
100
AcDbLine
 10
311.7249110294
 20
695.925415677
 30
0.0
 11
311.7249110294
 21
698.425415677
 31
0.0
  0
LINE
  5
1A2
330
1F
100
AcDbEntity
  8
0
  6
Continuous
 62
     8
370
    15
100
AcDbLine
 10
311.7192417363
 20
691.925415677
 30
0.0
 11
311.7149897665
 21
691.925415677
 31
0.0
  0
LINE
  5
1A3
330
1F
100
AcDbEntity
  8
0
  6
Continuous
 62
     8
370
    15
100
AcDbLine
 10
311.7192417363
 20
691.925415677
 30
0.0
 11
336.7192166262
 21
691.925415677
 31
0.0
  0
LINE
  5
1A4
330
1F
100
AcDbEntity
  8
0
  6
Continuous
 62
     8
370
    15
100
AcDbLine
 10
664.4396675829
 20
619.872394759
 30
0.0
 11
576.7076167754
 21
619.872394759
 31
0.0
  0
SPLINE
  5
1A5
330
1F
100
AcDbEntity
  8
0
  6
Continuous
 62
     8
370
    15
100
AcDbSpline
210
0.0
220
0.0
230
1.0
 70
     8
 71
     3
 72
    12
 73
     8
 74
     0
 42
0.00000001
 43
0.00000001
 12
1.0
 22
0.0
 32
0.0
 13
1.0
 23
0.0
 33
0.0
 40
0.0
 40
0.0
 40
0.0
 40
0.0
 40
0.1571577280892729
 40
0.2505951270623741
 40
0.5008887538713367
 40
0.74736640476334
 40
1.0
 40
1.0
 40
1.0
 40
1.0
 10
576.7076167753761
 20
619.8723947589594
 30
0.0
 10
576.6974381812772
 20
619.8844534886001
 30
0.0
 10
576.6812079512239
 20
619.9036816800686
 30
0.0
 10
576.649013374105
 20
619.9421782834196
 30
0.0
 10
576.613232133814
 20
619.9886688069846
 30
0.0
 10
576.578399014631
 20
620.0547067133289
 30
0.0
 10
576.5752407753606
 20
620.099647314107
 30
0.0
 10
576.5736421791605
 20
620.1223947589594
 30
0.0
  0
LINE
  5
1A6
330
1F
100
AcDbEntity
  8
0
  6
Continuous
 62
     8
370
    15
100
AcDbLine
 10
576.5736421792
 20
620.122394759
 30
0.0
 11
664.5736421792
 21
620.122394759
 31
0.0
  0
SPLINE
  5
1A7
330
1F
100
AcDbEntity
  8
0
  6
Continuous
 62
     8
370
    15
100
AcDbSpline
210
0.0
220
0.0
230
1.0
 70
     8
 71
     3
 72
    12
 73
     8
 74
     0
 42
0.00000001
 43
0.00000001
 12
1.0
 22
0.0
 32
0.0
 13
1.0
 23
0.0
 33
0.0
 40
0.0
 40
0.0
 40
0.0
 40
0.0
 40
0.1571230733353913
 40
0.2505951320308808
 40
0.5008887571804105
 40
0.7473664064379526
 40
1.0
 40
1.0
 40
1.0
 40
1.0
 10
664.4396675829449
 20
619.8723947589594
 30
0.0
 10
664.4498438989532
 20
619.884450855511
 30
0.0
 10
664.4660740757159
 20
619.903679088787
 30
0.0
 10
664.4982689114806
 20
619.9421755262932
 30
0.0
 10
664.5340522143387
 20
619.9886688165845
 30
0.0
 10
664.5688853462897
 20
620.0547067108746
 30
0.0
 10
664.572043583834
 20
620.0996473132819
 30
0.0
 10
664.5736421791605
 20
620.1223947589593
 30
0.0
  0
LINE
  5
1A8
330
1F
100
AcDbEntity
  8
0
  6
Continuous
 62
     8
370
    15
100
AcDbLine
 10
576.7076167754
 20
619.872394759
 30
0.0
 11
576.7076167754
 21
585.1403439514
 31
0.0
  0
SPLINE
  5
1A9
330
1F
100
AcDbEntity
  8
0
  6
Continuous
 62
     8
370
    15
100
AcDbSpline
210
0.0
220
0.0
230
1.0
 70
     8
 71
     3
 72
    12
 73
     8
 74
     0
 42
0.00000001
 43
0.00000001
 12
1.0
 22
0.0
 32
0.0
 13
1.0
 23
0.0
 33
0.0
 40
0.0
 40
0.0
 40
0.0
 40
0.0
 40
0.1571577297866323
 40
0.2505951270623405
 40
0.5008887538712419
 40
0.7473664047632275
 40
1.0
 40
1.0
 40
1.0
 40
1.0
 10
576.707616775376
 20
585.1403439513907
 30
0.0
 10
576.6955580456037
 20
585.1301653571836
 30
0.0
 10
576.6763298541324
 20
585.1139351271335
 30
0.0
 10
576.6378332507855
 20
585.0817405500121
 30
0.0
 10
576.5913427273497
 20
585.0459593098304
 30
0.0
 10
576.5253048210067
 20
585.0111261906454
 30
0.0
 10
576.4803642202286
 20
585.0079679513751
 30
0.0
 10
576.457616775376
 20
585.006369355175
 30
0.0
  0
LINE
  5
1AA
330
1F
100
AcDbEntity
  8
0
  6
Continuous
 62
     8
370
    15
100
AcDbLine
 10
576.4576167754
 20
585.0063693552
 30
0.0
 11
576.4576167754
 21
620.0063693552
 31
0.0
  0
SPLINE
  5
1AB
330
1F
100
AcDbEntity
  8
0
  6
Continuous
 62
     8
370
    15
100
AcDbSpline
210
0.0
220
0.0
230
1.0
 70
     8
 71
     3
 72
    12
 73
     8
 74
     0
 42
0.00000001
 43
0.00000001
 12
1.0
 22
0.0
 32
0.0
 13
1.0
 23
0.0
 33
0.0
 40
0.0
 40
0.0
 40
0.0
 40
0.0
 40
0.1571230726073244
 40
0.2505951320312593
 40
0.5008887571805167
 40
0.7473664064383654
 40
1.0
 40
1.0
 40
1.0
 40
1.0
 10
576.7076167753761
 20
619.8723947589594
 30
0.0
 10
576.6955606788822
 20
619.8825710749229
 30
0.0
 10
576.6763324456091
 20
619.8988012516893
 30
0.0
 10
576.6378360080964
 20
619.930996087447
 30
0.0
 10
576.591342717752
 20
619.9667793903548
 30
0.0
 10
576.5253048234604
 20
620.0016125223036
 30
0.0
 10
576.4803642210533
 20
620.0047707598484
 30
0.0
 10
576.457616775376
 20
620.006369355175
 30
0.0
  0
LINE
  5
1AC
330
1F
100
AcDbEntity
  8
0
  6
Continuous
 62
     8
370
    15
100
AcDbLine
 10
664.4396675829
 20
585.1403439514
 30
0.0
 11
664.4396675829
 21
619.872394759
 31
0.0
  0
LINE
  5
1AD
330
1F
100
AcDbEntity
  8
0
  6
Continuous
 62
     8
370
    15
100
AcDbLine
 10
576.7076167754
 20
585.1403439514
 30
0.0
 11
664.4396675829
 21
585.1403439514
 31
0.0
  0
ELLIPSE
  5
1AE
330
1F
100
AcDbEntity
  8
0
  6
Continuous
 62
     8
370
    15
100
AcDbEllipse
 10
658.0736421792
 20
615.5322291441
 30
0.0
 11
0.0
 21
2.488932980209142
 31
0.0
210
0.0
220
0.0
230
1.0
 40
0.8035571933
 41
4.712388980384747
 42
6.283185307179586
  0
LINE
  5
1AF
330
1F
100
AcDbEntity
  8
0
  6
Continuous
 62
     8
370
    15
100
AcDbLine
 10
583.0736421792
 20
618.0211621243
 30
0.0
 11
658.0736421792
 21
618.0211621243
 31
0.0
  0
ELLIPSE
  5
1B0
330
1F
100
AcDbEntity
  8
0
  6
Continuous
 62
     8
370
    15
100
AcDbEllipse
 10
583.0736421792
 20
615.5322291441
 30
0.0
 11
0.0
 21
-2.488932980209142
 31
0.0
210
0.0
220
0.0
230
1.0
 40
0.8035571933
 41
3.141592653589793
 42
4.7123889803847
  0
LINE
  5
1B1
330
1F
100
AcDbEntity
  8
0
  6
Continuous
 62
     8
370
    15
100
AcDbLine
 10
581.0736421792
 20
591.5587125332
 30
0.0
 11
581.0736421792
 21
615.5322291441
 31
0.0
  0
ELLIPSE
  5
1B2
330
1F
100
AcDbEntity
  8
0
  6
Continuous
 62
     8
370
    15
100
AcDbEllipse
 10
583.0736421792
 20
591.5587125332
 30
0.0
 11
0.0
 21
3.201562118716538
 31
0.0
210
0.0
220
0.0
230
1.0
 40
0.6246950476
 41
1.570796326794861
 42
3.141592653589793
  0
LINE
  5
1B3
330
1F
100
AcDbEntity
  8
0
  6
Continuous
 62
     8
370
    15
100
AcDbLine
 10
658.0736421792
 20
588.3571504145
 30
0.0
 11
583.0736421792
 21
588.3571504145
 31
0.0
  0
ELLIPSE
  5
1B4
330
1F
100
AcDbEntity
  8
0
  6
Continuous
 62
     8
370
    15
100
AcDbEllipse
 10
658.0736421792
 20
591.5587125332
 30
0.0
 11
0.0
 21
-3.201562118716424
 31
0.0
210
0.0
220
0.0
230
1.0
 40
0.6246950476
 41
0.0
 42
1.570796326794932
  0
LINE
  5
1B5
330
1F
100
AcDbEntity
  8
0
  6
Continuous
 62
     8
370
    15
100
AcDbLine
 10
660.0736421792
 20
615.5322291441
 30
0.0
 11
660.0736421792
 21
591.5587125332
 31
0.0
  0
LINE
  5
1B6
330
1F
100
AcDbEntity
  8
0
  6
Continuous
 62
     8
370
    15
100
AcDbLine
 10
664.5736421792
 20
584.8903439514
 30
0.0
 11
576.5736421792
 21
584.8903439514
 31
0.0
  0
SPLINE
  5
1B7
330
1F
100
AcDbEntity
  8
0
  6
Continuous
 62
     8
370
    15
100
AcDbSpline
210
0.0
220
0.0
230
1.0
 70
     8
 71
     3
 72
    12
 73
     8
 74
     0
 42
0.00000001
 43
0.00000001
 12
1.0
 22
0.0
 32
0.0
 13
1.0
 23
0.0
 33
0.0
 40
0.0
 40
0.0
 40
0.0
 40
0.0
 40
0.2526335935619305
 40
0.4991112428196348
 40
0.7494048679689038
 40
0.8428769273821899
 40
1.0
 40
1.0
 40
1.0
 40
1.0
 10
576.5736421791604
 20
584.8903439513906
 30
0.0
 10
576.5752407744872
 20
584.9130913970678
 30
0.0
 10
576.578399012032
 20
584.9580319994749
 30
0.0
 10
576.6132321439804
 20
585.0240698937672
 30
0.0
 10
576.6490154468895
 20
585.0705631841088
 30
0.0
 10
576.6812102826431
 20
585.1090596216252
 30
0.0
 10
576.6974404594108
 20
585.1282878548967
 30
0.0
 10
576.707616775376
 20
585.1403439513907
 30
0.0
  0
SPLINE
  5
1B8
330
1F
100
AcDbEntity
  8
0
  6
Continuous
 62
     8
370
    15
100
AcDbSpline
210
0.0
220
0.0
230
1.0
 70
     8
 71
     3
 72
    12
 73
     8
 74
     0
 42
0.00000001
 43
0.00000001
 12
1.0
 22
0.0
 32
0.0
 13
1.0
 23
0.0
 33
0.0
 40
0.0
 40
0.0
 40
0.0
 40
0.0
 40
0.2526335952363925
 40
0.4991112461283729
 40
0.7494048729376891
 40
0.8428422697598694
 40
0.9999999999999999
 40
0.9999999999999999
 40
0.9999999999999999
 40
0.9999999999999999
 10
664.5736421791604
 20
584.8903439513905
 30
0.0
 10
664.5720435829603
 20
584.9130913962431
 30
0.0
 10
664.56888534369
 20
584.9580319970212
 30
0.0
 10
664.5340522245048
 20
585.0240699033637
 30
0.0
 10
664.4982709843509
 20
585.0705604267646
 30
0.0
 10
664.4660764072315
 20
585.1090570301122
 30
0.0
 10
664.4498461771813
 20
585.1282852215835
 30
0.0
 10
664.4396675829449
 20
585.1403439513905
 30
0.0
  0
LINE
  5
1B9
330
1F
100
AcDbEntity
  8
0
  6
Continuous
 62
     8
370
    15
100
AcDbLine
 10
664.6896675829
 20
620.0063693552
 30
0.0
 11
664.6896675829
 21
585.0063693552
 31
0.0
  0
SPLINE
  5
1BA
330
1F
100
AcDbEntity
  8
0
  6
Continuous
 62
     8
370
    15
100
AcDbSpline
210
0.0
220
0.0
230
1.0
 70
     8
 71
     3
 72
    12
 73
     8
 74
     0
 42
0.00000001
 43
0.00000001
 12
1.0
 22
0.0
 32
0.0
 13
1.0
 23
0.0
 33
0.0
 40
0.0
 40
0.0
 40
0.0
 40
0.0
 40
0.2526335935618683
 40
0.4991112428196907
 40
0.7494048679685871
 40
0.8428769288220125
 40
1.0
 40
1.0
 40
1.0
 40
1.0
 10
664.6896675829448
 20
585.006369355175
 30
0.0
 10
664.6669201372677
 20
585.0079679505018
 30
0.0
 10
664.6219795348607
 20
585.0111261880469
 30
0.0
 10
664.5559416405669
 20
585.045959319993
 30
0.0
 10
664.5094483501164
 20
585.0817426229955
 30
0.0
 10
664.4709519125959
 20
585.1139374587461
 30
0.0
 10
664.4517236793266
 20
585.1301676355167
 30
0.0
 10
664.4396675829448
 20
585.1403439513905
 30
0.0
  0
SPLINE
  5
1BB
330
1F
100
AcDbEntity
  8
0
  6
Continuous
 62
     8
370
    15
100
AcDbSpline
210
0.0
220
0.0
230
1.0
 70
     8
 71
     3
 72
    12
 73
     8
 74
     0
 42
0.00000001
 43
0.00000001
 12
1.0
 22
0.0
 32
0.0
 13
1.0
 23
0.0
 33
0.0
 40
0.0
 40
0.0
 40
0.0
 40
0.0
 40
0.2526335952366838
 40
0.4991112461282229
 40
0.7494048729373403
 40
0.842842272450717
 40
1.0
 40
1.0
 40
1.0
 40
1.0
 10
664.6896675829449
 20
620.0063693551749
 30
0.0
 10
664.6669201380923
 20
620.0047707589748
 30
0.0
 10
664.6219795373147
 20
620.0016125197044
 30
0.0
 10
664.5559416309692
 20
619.9667794005223
 30
0.0
 10
664.5094511073646
 20
619.930998160195
 30
0.0
 10
664.4709545040092
 20
619.8988035830804
 30
0.0
 10
664.4517263125426
 20
619.8825733530248
 30
0.0
 10
664.4396675829448
 20
619.8723947589594
 30
0.0
  0
SPLINE
  5
1BC
330
1F
100
AcDbEntity
  8
0
  6
Continuous
 62
     8
370
    15
100
AcDbSpline
210
0.0
220
0.0
230
1.0
 70
     8
 71
     3
 72
     9
 73
     5
 74
     0
 42
0.00000001
 43
0.00000001
 12
1.0
 22
0.0
 32
0.0
 13
1.0
 23
0.0
 33
0.0
 40
0.0
 40
0.0
 40
0.0
 40
0.0
 40
0.4999928052375451
 40
1.0
 40
1.0
 40
1.0
 40
1.0
 10
576.457616775376
 20
620.006369355175
 30
0.0
 10
576.4746623177494
 20
620.0279983544033
 30
0.0
 10
576.508753893058
 20
620.0712569753306
 30
0.0
 10
576.5520125429691
 20
620.1053486675621
 30
0.0
 10
576.5736421791605
 20
620.1223947589594
 30
0.0
  0
SPLINE
  5
1BD
330
1F
100
AcDbEntity
  8
0
  6
Continuous
 62
     8
370
    15
100
AcDbSpline
210
0.0
220
0.0
230
1.0
 70
     8
 71
     3
 72
     9
 73
     5
 74
     0
 42
0.00000001
 43
0.00000001
 12
1.0
 22
0.0
 32
0.0
 13
1.0
 23
0.0
 33
0.0
 40
0.0
 40
0.0
 40
0.0
 40
0.0
 40
0.499992805237545
 40
0.9999999999999999
 40
0.9999999999999999
 40
0.9999999999999999
 40
0.9999999999999999
 10
576.5736421791604
 20
584.8903439513906
 30
0.0
 10
576.5520131799323
 20
584.907389493764
 30
0.0
 10
576.5087545590048
 20
584.9414810690724
 30
0.0
 10
576.4746628667734
 20
584.9847397189837
 30
0.0
 10
576.457616775376
 20
585.006369355175
 30
0.0
  0
SPLINE
  5
1BE
330
1F
100
AcDbEntity
  8
0
  6
Continuous
 62
     8
370
    15
100
AcDbSpline
210
0.0
220
0.0
230
1.0
 70
     8
 71
     3
 72
     9
 73
     5
 74
     0
 42
0.00000001
 43
0.00000001
 12
1.0
 22
0.0
 32
0.0
 13
1.0
 23
0.0
 33
0.0
 40
0.0
 40
0.0
 40
0.0
 40
0.0
 40
0.4999928052374968
 40
1.0
 40
1.0
 40
1.0
 40
1.0
 10
664.5736421791605
 20
620.1223947589593
 30
0.0
 10
664.5952711783885
 20
620.105349216586
 30
0.0
 10
664.638529799316
 20
620.0712576412777
 30
0.0
 10
664.6726214915475
 20
620.0279989913664
 30
0.0
 10
664.6896675829449
 20
620.0063693551749
 30
0.0
  0
SPLINE
  5
1BF
330
1F
100
AcDbEntity
  8
0
  6
Continuous
 62
     8
370
    15
100
AcDbSpline
210
0.0
220
0.0
230
1.0
 70
     8
 71
     3
 72
     9
 73
     5
 74
     0
 42
0.00000001
 43
0.00000001
 12
1.0
 22
0.0
 32
0.0
 13
1.0
 23
0.0
 33
0.0
 40
0.0
 40
0.0
 40
0.0
 40
0.0
 40
0.499992805237726
 40
1.0
 40
1.0
 40
1.0
 40
1.0
 10
664.6896675829448
 20
585.006369355175
 30
0.0
 10
664.6726220405714
 20
584.9847403559469
 30
0.0
 10
664.6385304652629
 20
584.9414817350196
 30
0.0
 10
664.5952718153517
 20
584.907390042788
 30
0.0
 10
664.5736421791604
 20
584.8903439513905
 30
0.0
  0
LINE
  5
1C0
330
1F
100
AcDbEntity
  8
0
  6
Continuous
 62
     8
370
    15
100
AcDbLine
 10
583.0736421792
 20
618.0211621243
 30
0.0
 11
583.0736421792
 21
617.0211621243
 31
0.0
  0
LINE
  5
1C1
330
1F
100
AcDbEntity
  8
0
  6
Continuous
 62
     8
370
    15
100
AcDbLine
 10
658.0736421792
 20
617.0211621243
 30
0.0
 11
658.0736421792
 21
618.0211621243
 31
0.0
  0
LINE
  5
1C2
330
1F
100
AcDbEntity
  8
0
  6
Continuous
 62
     8
370
    15
100
AcDbLine
 10
581.0736421792
 20
615.5322291441
 30
0.0
 11
582.0736421792
 21
615.5322291441
 31
0.0
  0
LINE
  5
1C3
330
1F
100
AcDbEntity
  8
0
  6
Continuous
 62
     8
370
    15
100
AcDbLine
 10
581.0736421792
 20
591.5587125332
 30
0.0
 11
582.0736421792
 21
591.5587125332
 31
0.0
  0
ELLIPSE
  5
1C4
330
1F
100
AcDbEntity
  8
0
  6
Continuous
 62
     8
370
    15
100
AcDbEllipse
 10
583.0736421792
 20
591.5587125332
 30
0.0
 11
0.0
 21
2.576867071161928
 31
0.0
210
0.0
220
0.0
230
1.0
 40
0.3880681356
 41
1.570796326794897
 42
3.141592653589793
  0
LINE
  5
1C5
330
1F
100
AcDbEntity
  8
0
  6
Continuous
 62
     8
370
    15
100
AcDbLine
 10
583.0736421792
 20
588.3571504145
 30
0.0
 11
583.0736421792
 21
588.9818454621
 31
0.0
  0
LINE
  5
1C6
330
1F
100
AcDbEntity
  8
0
  6
Continuous
 62
     8
370
    15
100
AcDbLine
 10
583.0736421792
 20
588.9818454621
 30
0.0
 11
658.0736421792
 21
588.9818454621
 31
0.0
  0
LINE
  5
1C7
330
1F
100
AcDbEntity
  8
0
  6
Continuous
 62
     8
370
    15
100
AcDbLine
 10
658.0736421792
 20
588.9818454621
 30
0.0
 11
658.0736421792
 21
588.3571504145
 31
0.0
  0
LINE
  5
1C8
330
1F
100
AcDbEntity
  8
0
  6
Continuous
 62
     8
370
    15
100
AcDbLine
 10
659.0736421792
 20
615.5322291441
 30
0.0
 11
660.0736421792
 21
615.5322291441
 31
0.0
  0
LINE
  5
1C9
330
1F
100
AcDbEntity
  8
0
  6
Continuous
 62
     8
370
    15
100
AcDbLine
 10
659.0736421792
 20
591.5587125332
 30
0.0
 11
660.0736421792
 21
591.5587125332
 31
0.0
  0
ELLIPSE
  5
1CA
330
1F
100
AcDbEntity
  8
0
  6
Continuous
 62
     8
370
    15
100
AcDbEllipse
 10
658.0736421792
 20
591.5587125332
 30
0.0
 11
0.0
 21
2.576867071162042
 31
0.0
210
0.0
220
0.0
230
1.0
 40
0.3880681356
 41
3.141592653589793
 42
4.712388980384695
  0
ARC
  5
1CB
330
1F
100
AcDbEntity
  8
0
  6
Continuous
 62
     8
370
    15
100
AcDbCircle
 10
664.5736421792
 20
585.0063693552
 30
0.0
 40
2.750440362095674
100
AcDbArc
 50
270.0
 51
0.0
  0
LINE
  5
1CC
330
1F
100
AcDbEntity
  8
0
  6
Continuous
 62
     8
370
    15
100
AcDbLine
 10
664.5736421792
 20
582.2559289931
 30
0.0
 11
664.5736421792
 21
584.8903439514
 31
0.0
  0
LINE
  5
1CD
330
1F
100
AcDbEntity
  8
0
  6
Continuous
 62
     8
370
    15
100
AcDbLine
 10
667.3240825413
 20
585.0063693552
 30
0.0
 11
664.6896675829
 21
585.0063693552
 31
0.0
  0
ARC
  5
1CE
330
1F
100
AcDbEntity
  8
0
  6
Continuous
 62
     8
370
    15
100
AcDbCircle
 10
576.5736421792
 20
585.0063693552
 30
0.0
 40
2.75044036209556
100
AcDbArc
 50
180.0
 51
270.0
  0
LINE
  5
1CF
330
1F
100
AcDbEntity
  8
0
  6
Continuous
 62
     8
370
    15
100
AcDbLine
 10
576.4576167754
 20
585.0063693552
 30
0.0
 11
573.8232018171
 21
585.0063693552
 31
0.0
  0
LINE
  5
1D0
330
1F
100
AcDbEntity
  8
0
  6
Continuous
 62
     8
370
    15
100
AcDbLine
 10
576.5736421792
 20
584.8903439514
 30
0.0
 11
576.5736421792
 21
582.2559289931
 31
0.0
  0
ARC
  5
1D1
330
1F
100
AcDbEntity
  8
0
  6
Continuous
 62
     8
370
    15
100
AcDbCircle
 10
576.5736421792
 20
620.0063693552
 30
0.0
 40
2.750440362095674
100
AcDbArc
 50
90.0
 51
180.0
  0
LINE
  5
1D2
330
1F
100
AcDbEntity
  8
0
  6
Continuous
 62
     8
370
    15
100
AcDbLine
 10
576.5736421792
 20
620.122394759
 30
0.0
 11
576.5736421792
 21
622.7568097173
 31
0.0
  0
LINE
  5
1D3
330
1F
100
AcDbEntity
  8
0
  6
Continuous
 62
     8
370
    15
100
AcDbLine
 10
576.4576167754
 20
620.0063693552
 30
0.0
 11
573.8232018171
 21
620.0063693552
 31
0.0
  0
LINE
  5
1D4
330
1F
100
AcDbEntity
  8
0
  6
Continuous
 62
     8
370
    15
100
AcDbLine
 10
664.5736421792
 20
622.7568097173
 30
0.0
 11
664.5736421792
 21
620.122394759
 31
0.0
  0
ARC
  5
1D5
330
1F
100
AcDbEntity
  8
0
  6
Continuous
 62
     8
370
    15
100
AcDbCircle
 10
664.5736421792
 20
620.0063693552
 30
0.0
 40
2.750440362095787
100
AcDbArc
 50
0.0
 51
90.0
  0
LINE
  5
1D6
330
1F
100
AcDbEntity
  8
0
  6
Continuous
 62
     8
370
    15
100
AcDbLine
 10
667.3240825413
 20
620.0063693552
 30
0.0
 11
664.6896675829
 21
620.0063693552
 31
0.0
  0
LINE
  5
1D7
330
1F
100
AcDbEntity
  8
0
  6
Continuous
 62
     8
370
    15
100
AcDbLine
 10
664.5736421792
 20
622.7568097173
 30
0.0
 11
576.5736421792
 21
622.7568097173
 31
0.0
  0
LINE
  5
1D8
330
1F
100
AcDbEntity
  8
0
  6
Continuous
 62
     8
370
    15
100
AcDbLine
 10
573.8232018171
 20
620.0063693552
 30
0.0
 11
573.8232018171
 21
585.0063693552
 31
0.0
  0
LINE
  5
1D9
330
1F
100
AcDbEntity
  8
0
  6
Continuous
 62
     8
370
    15
100
AcDbLine
 10
576.5736421792
 20
582.2559289931
 30
0.0
 11
664.5736421792
 21
582.2559289931
 31
0.0
  0
LINE
  5
1DA
330
1F
100
AcDbEntity
  8
0
  6
Continuous
 62
     8
370
    15
100
AcDbLine
 10
667.3240825413
 20
585.0063693552
 30
0.0
 11
667.3240825413
 21
620.0063693552
 31
0.0
  0
LINE
  5
1DB
330
1F
100
AcDbEntity
  8
0
  6
Continuous
 62
     8
370
    15
100
AcDbLine
 10
583.0736421792
 20
609.4340174857
 30
0.0
 11
583.0736421792
 21
588.9818454621
 31
0.0
  0
LINE
  5
1DC
330
1F
100
AcDbEntity
  8
0
  6
Continuous
 62
     8
370
    15
100
AcDbLine
 10
658.0736421792
 20
609.4340174857
 30
0.0
 11
583.0736421792
 21
609.4340174857
 31
0.0
  0
LINE
  5
1DD
330
1F
100
AcDbEntity
  8
0
  6
Continuous
 62
     8
370
    15
100
AcDbLine
 10
658.0736421792
 20
588.9818454621
 30
0.0
 11
658.0736421792
 21
609.4340174857
 31
0.0
  0
LWPOLYLINE
  5
1DE
330
1F
100
AcDbEntity
  8
0
  6
Continuous
 62
     8
370
    15
100
AcDbPolyline
 90
        9
 70
   128
 43
0.0
 10
583.0736421792
 20
609.4340174857
 10
582.8785518571
 20
609.4460208259
 10
582.6909587468
 20
609.4815695648
 10
582.5180719461
 20
609.5392975843
 10
582.366535398
 20
609.616986429
 10
582.2421725669
 20
609.7116505601
 10
582.1497626466
 20
609.8196520883
 10
582.0928568988
 20
609.9368405753
 10
582.0736421792
 20
610.0587125332
  0
LWPOLYLINE
  5
1DF
330
1F
100
AcDbEntity
  8
0
  6
Continuous
 62
     8
370
    15
100
AcDbPolyline
 90
        9
 70
   128
 43
0.0
 10
659.0736421792
 20
610.0587125332
 10
659.0544274596
 20
609.9368405753
 10
658.9975217117
 20
609.8196520883
 10
658.9051117915
 20
609.7116505601
 10
658.7807489603
 20
609.616986429
 10
658.6292124122
 20
609.5392975843
 10
658.4563256115
 20
609.4815695648
 10
658.2687325012
 20
609.4460208259
 10
658.0736421792
 20
609.4340174857
  0
LINE
  5
1E0
330
1F
100
AcDbEntity
  8
0
  6
Continuous
 62
     8
370
    15
100
AcDbLine
 10
573.8232018171
 20
620.0063693552
 30
0.0
 11
573.5736421792
 21
620.0063693552
 31
0.0
  0
LINE
  5
1E1
330
1F
100
AcDbEntity
  8
0
  6
Continuous
 62
     8
370
    15
100
AcDbLine
 10
576.5736421792
 20
622.7568097173
 30
0.0
 11
576.5736421792
 21
623.0063693552
 31
0.0
  0
LINE
  5
1E2
330
1F
100
AcDbEntity
  8
0
  6
Continuous
 62
     8
370
    15
100
AcDbLine
 10
573.8232018171
 20
585.0063693552
 30
0.0
 11
573.5736421792
 21
585.0063693552
 31
0.0
  0
LINE
  5
1E3
330
1F
100
AcDbEntity
  8
0
  6
Continuous
 62
     8
370
    15
100
AcDbLine
 10
664.5736421792
 20
622.7568097173
 30
0.0
 11
664.5736421792
 21
623.0063693552
 31
0.0
  0
LINE
  5
1E4
330
1F
100
AcDbEntity
  8
0
  6
Continuous
 62
     8
370
    15
100
AcDbLine
 10
576.5736421792
 20
582.0063693552
 30
0.0
 11
576.5736421792
 21
582.2559289931
 31
0.0
  0
LINE
  5
1E5
330
1F
100
AcDbEntity
  8
0
  6
Continuous
 62
     8
370
    15
100
AcDbLine
 10
664.5736421792
 20
582.0063693552
 30
0.0
 11
664.5736421792
 21
582.2559289931
 31
0.0
  0
LINE
  5
1E6
330
1F
100
AcDbEntity
  8
0
  6
Continuous
 62
     8
370
    15
100
AcDbLine
 10
667.5736421792
 20
620.0063693552
 30
0.0
 11
667.3240825413
 21
620.0063693552
 31
0.0
  0
LINE
  5
1E7
330
1F
100
AcDbEntity
  8
0
  6
Continuous
 62
     8
370
    15
100
AcDbLine
 10
667.5736421792
 20
585.0063693552
 30
0.0
 11
667.3240825413
 21
585.0063693552
 31
0.0
  0
LINE
  5
1E8
330
1F
100
AcDbEntity
  8
0
  6
Continuous
 62
     8
370
    15
100
AcDbLine
 10
583.0736421792
 20
617.0211621243
 30
0.0
 11
583.0736421792
 21
610.0587125332
 31
0.0
  0
LINE
  5
1E9
330
1F
100
AcDbEntity
  8
0
  6
Continuous
 62
     8
370
    15
100
AcDbLine
 10
583.0736421792
 20
610.0587125332
 30
0.0
 11
582.0736421792
 21
610.0587125332
 31
0.0
  0
LINE
  5
1EA
330
1F
100
AcDbEntity
  8
0
  6
Continuous
 62
     8
370
    15
100
AcDbLine
 10
583.0736421792
 20
609.4340174857
 30
0.0
 11
583.0736421792
 21
610.0587125332
 31
0.0
  0
LINE
  5
1EB
330
1F
100
AcDbEntity
  8
0
  6
Continuous
 62
     8
370
    15
100
AcDbLine
 10
659.0736421792
 20
610.0587125332
 30
0.0
 11
658.0736421792
 21
610.0587125332
 31
0.0
  0
LINE
  5
1EC
330
1F
100
AcDbEntity
  8
0
  6
Continuous
 62
     8
370
    15
100
AcDbLine
 10
658.0736421792
 20
610.0587125332
 30
0.0
 11
658.0736421792
 21
617.0211621243
 31
0.0
  0
LINE
  5
1ED
330
1F
100
AcDbEntity
  8
0
  6
Continuous
 62
     8
370
    15
100
AcDbLine
 10
658.0736421792
 20
610.0587125332
 30
0.0
 11
658.0736421792
 21
609.4340174857
 31
0.0
  0
LINE
  5
1EE
330
1F
100
AcDbEntity
  8
0
  6
Continuous
 62
     8
370
    15
100
AcDbLine
 10
583.0736421792
 20
610.0587125332
 30
0.0
 11
658.0736421792
 21
610.0587125332
 31
0.0
  0
ARC
  5
1EF
330
1F
100
AcDbEntity
  8
0
  6
Continuous
 62
     8
370
    15
100
AcDbCircle
 10
329.928499644
 20
670.3612268201
 30
0.0
 40
18.12458555644338
100
AcDbArc
 50
90.0
 51
180.0
  0
LINE
  5
1F0
330
1F
100
AcDbEntity
  8
0
  6
Continuous
 62
     8
370
    15
100
AcDbLine
 10
329.928499644
 20
688.4858123765
 30
0.0
 11
329.928499644
 21
673.5063693552
 31
0.0
  0
ARC
  5
1F1
330
1F
100
AcDbEntity
  8
0
  6
Continuous
 62
     8
370
    15
100
AcDbCircle
 10
329.928499644
 20
670.3612268201
 30
0.0
 40
3.145142535124762
100
AcDbArc
 50
90.0
 51
180.0
  0
LINE
  5
1F2
330
1F
100
AcDbEntity
  8
0
  6
Continuous
 62
     8
370
    15
100
AcDbLine
 10
311.8039140876
 20
670.3612268201
 30
0.0
 11
326.7833571089
 21
670.3612268201
 31
0.0
  0
LINE
  5
1F3
330
1F
100
AcDbEntity
  8
0
  6
Continuous
 62
     8
370
    15
100
AcDbLine
 10
311.8039140876
 20
240.3612268201
 30
0.0
 11
311.8039140876
 21
670.3612268201
 31
0.0
  0
LINE
  5
1F4
330
1F
100
AcDbEntity
  8
0
  6
Continuous
 62
     8
370
    15
100
AcDbLine
 10
326.7833571089
 20
670.3612268201
 30
0.0
 11
326.7833571089
 21
240.3612268201
 31
0.0
  0
LINE
  5
1F5
330
1F
100
AcDbEntity
  8
0
  6
Continuous
 62
     8
370
    15
100
AcDbLine
 10
311.8039140876
 20
240.3612268201
 30
0.0
 11
326.7833571089
 21
240.3612268201
 31
0.0
  0
LINE
  5
1F6
330
1F
100
AcDbEntity
  8
0
  6
Continuous
 62
     8
370
    15
100
AcDbLine
 10
329.928499644
 20
688.4858123765
 30
0.0
 11
685.928499644
 21
688.4858123765
 31
0.0
  0
LINE
  5
1F7
330
1F
100
AcDbEntity
  8
0
  6
Continuous
 62
     8
370
    15
100
AcDbLine
 10
685.928499644
 20
688.4858123765
 30
0.0
 11
685.928499644
 21
673.5063693552
 31
0.0
  0
LINE
  5
1F8
330
1F
100
AcDbEntity
  8
0
  6
Continuous
 62
     8
370
    15
100
AcDbLine
 10
685.928499644
 20
673.5063693552
 30
0.0
 11
329.928499644
 21
673.5063693552
 31
0.0
  0
ARC
  5
1F9
330
1F
100
AcDbEntity
  8
0
  6
Continuous
 62
     8
370
    15
100
AcDbCircle
 10
685.928499644
 20
240.3612268201
 30
0.0
 40
3.145142535124791
100
AcDbArc
 50
270.0
 51
0.0
  0
LINE
  5
1FA
330
1F
100
AcDbEntity
  8
0
  6
Continuous
 62
     8
370
    15
100
AcDbLine
 10
329.928499644
 20
237.2160842849
 30
0.0
 11
685.928499644
 21
237.2160842849
 31
0.0
  0
ARC
  5
1FB
330
1F
100
AcDbEntity
  8
0
  6
Continuous
 62
     8
370
    15
100
AcDbCircle
 10
329.928499644
 20
240.3612268201
 30
0.0
 40
3.145142535124762
100
AcDbArc
 50
180.0
 51
270.0
  0
ARC
  5
1FC
330
1F
100
AcDbEntity
  8
0
  6
Continuous
 62
     8
370
    15
100
AcDbCircle
 10
685.928499644
 20
670.3612268201
 30
0.0
 40
3.145142535124705
100
AcDbArc
 50
0.0
 51
90.0
  0
LINE
  5
1FD
330
1F
100
AcDbEntity
  8
0
  6
Continuous
 62
     8
370
    15
100
AcDbLine
 10
689.0736421792
 20
240.3612268201
 30
0.0
 11
689.0736421792
 21
670.3612268201
 31
0.0
  0
LINE
  5
1FE
330
1F
100
AcDbEntity
  8
0
  6
Continuous
 62
     8
370
    15
100
AcDbLine
 10
329.928499644
 20
237.2160842849
 30
0.0
 11
329.928499644
 21
222.2366412636
 31
0.0
  0
ARC
  5
1FF
330
1F
100
AcDbEntity
  8
0
  6
Continuous
 62
     8
370
    15
100
AcDbCircle
 10
329.928499644
 20
240.3612268201
 30
0.0
 40
18.12458555644326
100
AcDbArc
 50
180.0
 51
270.0
  0
LINE
  5
200
330
1F
100
AcDbEntity
  8
0
  6
Continuous
 62
     8
370
    15
100
AcDbLine
 10
685.928499644
 20
237.2160842849
 30
0.0
 11
685.928499644
 21
222.2366412636
 31
0.0
  0
LINE
  5
201
330
1F
100
AcDbEntity
  8
0
  6
Continuous
 62
     8
370
    15
100
AcDbLine
 10
685.928499644
 20
222.2366412636
 30
0.0
 11
329.928499644
 21
222.2366412636
 31
0.0
  0
ARC
  5
202
330
1F
100
AcDbEntity
  8
0
  6
Continuous
 62
     8
370
    15
100
AcDbCircle
 10
685.928499644
 20
670.3612268201
 30
0.0
 40
18.12458555644332
100
AcDbArc
 50
0.0
 51
90.0
  0
LINE
  5
203
330
1F
100
AcDbEntity
  8
0
  6
Continuous
 62
     8
370
    15
100
AcDbLine
 10
689.0736421792
 20
670.3612268201
 30
0.0
 11
704.0530852005
 21
670.3612268201
 31
0.0
  0
LINE
  5
204
330
1F
100
AcDbEntity
  8
0
  6
Continuous
 62
     8
370
    15
100
AcDbLine
 10
704.0530852005
 20
670.3612268201
 30
0.0
 11
704.0530852005
 21
240.3612268201
 31
0.0
  0
LINE
  5
205
330
1F
100
AcDbEntity
  8
0
  6
Continuous
 62
     8
370
    15
100
AcDbLine
 10
689.0736421792
 20
240.3612268201
 30
0.0
 11
704.0530852005
 21
240.3612268201
 31
0.0
  0
ARC
  5
206
330
1F
100
AcDbEntity
  8
0
  6
Continuous
 62
     8
370
    15
100
AcDbCircle
 10
685.928499644
 20
240.3612268201
 30
0.0
 40
18.12458555644338
100
AcDbArc
 50
270.0
 51
0.0
  0
LINE
  5
207
330
1F
100
AcDbEntity
  8
0
  6
Continuous
 62
     8
370
    15
100
AcDbLine
 10
329.928499644
 20
688.4858123765
 30
0.0
 11
329.928499644
 21
690.3612268201
 31
0.0
  0
LINE
  5
208
330
1F
100
AcDbEntity
  8
0
  6
Continuous
 62
     8
370
    15
100
AcDbLine
 10
311.8039140876
 20
670.3612268201
 30
0.0
 11
309.928499644
 21
670.3612268201
 31
0.0
  0
LINE
  5
209
330
1F
100
AcDbEntity
  8
0
  6
Continuous
 62
     8
370
    15
100
AcDbLine
 10
311.8039140876
 20
240.3612268201
 30
0.0
 11
309.928499644
 21
240.3612268201
 31
0.0
  0
LINE
  5
20A
330
1F
100
AcDbEntity
  8
0
  6
Continuous
 62
     8
370
    15
100
AcDbLine
 10
685.928499644
 20
688.4858123765
 30
0.0
 11
685.928499644
 21
690.3612268201
 31
0.0
  0
LINE
  5
20B
330
1F
100
AcDbEntity
  8
0
  6
Continuous
 62
     8
370
    15
100
AcDbLine
 10
329.928499644
 20
222.2366412636
 30
0.0
 11
329.928499644
 21
220.3612268201
 31
0.0
  0
LINE
  5
20C
330
1F
100
AcDbEntity
  8
0
  6
Continuous
 62
     8
370
    15
100
AcDbLine
 10
685.928499644
 20
222.2366412636
 30
0.0
 11
685.928499644
 21
220.3612268201
 31
0.0
  0
LINE
  5
20D
330
1F
100
AcDbEntity
  8
0
  6
Continuous
 62
     8
370
    15
100
AcDbLine
 10
704.0530852005
 20
670.3612268201
 30
0.0
 11
705.928499644
 21
670.3612268201
 31
0.0
  0
LINE
  5
20E
330
1F
100
AcDbEntity
  8
0
  6
Continuous
 62
     8
370
    15
100
AcDbLine
 10
704.0530852005
 20
240.3612268201
 30
0.0
 11
705.928499644
 21
240.3612268201
 31
0.0
  0
LINE
  5
20F
330
1F
100
AcDbEntity
  8
0
  6
Continuous
 62
     8
370
    15
100
AcDbLine
 10
675.2798099762
 20
697.525415677
 30
0.0
 11
675.2798099762
 21
690.3612268201
 31
0.0
  0
LINE
  5
210
330
1F
100
AcDbEntity
  8
0
  6
Continuous
 62
     8
370
    15
100
AcDbLine
 10
674.0510819098
 20
697.9128321482
 30
0.0
 11
673.3957602744
 21
698.3716932972
 31
0.0
  0
LINE
  5
211
330
1F
100
AcDbEntity
  8
0
  6
Continuous
 62
     8
370
    15
100
AcDbLine
 10
341.6798099763
 20
697.525415677
 30
0.0
 11
341.6798099763
 21
690.3612268201
 31
0.0
  0
LINE
  5
212
330
1F
100
AcDbEntity
  8
0
  6
Continuous
 62
     8
370
    15
100
AcDbLine
 10
342.9085380427
 20
697.9128321482
 30
0.0
 11
343.5638596781
 21
698.3716932972
 31
0.0
  0
LINE
  5
213
330
1F
100
AcDbEntity
  8
0
  6
Continuous
 62
     8
370
    15
100
AcDbLine
 10
399.9798099762
 20
50.725415677
 30
0.0
 11
342.9798099762
 21
50.725415677
 31
0.0
  0
LINE
  5
214
330
1F
100
AcDbEntity
  8
0
  6
Continuous
 62
     8
370
    15
100
AcDbLine
 10
673.9798099762
 20
50.725415677
 30
0.0
 11
616.9798099762
 21
50.725415677
 31
0.0
  0
LINE
  5
215
330
1F
100
AcDbEntity
  8
0
  6
Continuous
 62
     8
370
    15
100
AcDbLine
 10
403.3798099762
 20
215.225415677
 30
0.0
 11
339.5798099762
 21
215.225415677
 31
0.0
  0
LINE
  5
216
330
1F
100
AcDbEntity
  8
0
  6
Continuous
 62
     8
370
    15
100
AcDbLine
 10
403.3798099762
 20
128.7579816226
 30
0.0
 11
339.5798099762
 21
128.7579816226
 31
0.0
  0
LINE
  5
217
330
1F
100
AcDbEntity
  8
0
  6
Continuous
 62
     8
370
    15
100
AcDbLine
 10
403.3158967492
 20
127.9855183981
 30
0.0
 11
339.6437232032
 21
127.9855183981
 31
0.0
  0
LINE
  5
218
330
1F
100
AcDbEntity
  8
0
  6
Continuous
 62
     8
370
    15
100
AcDbLine
 10
677.3798099762
 20
215.225415677
 30
0.0
 11
613.5798099762
 21
215.225415677
 31
0.0
  0
LINE
  5
219
330
1F
100
AcDbEntity
  8
0
  6
Continuous
 62
     8
370
    15
100
AcDbLine
 10
677.3158967492
 20
127.9855183981
 30
0.0
 11
613.6437232032
 21
127.9855183981
 31
0.0
  0
LINE
  5
21A
330
1F
100
AcDbEntity
  8
0
  6
Continuous
 62
     8
370
    15
100
AcDbLine
 10
677.3798099762
 20
128.7579816226
 30
0.0
 11
613.5798099762
 21
128.7579816226
 31
0.0
  0
LINE
  5
21B
330
1F
100
AcDbEntity
  8
0
  6
Continuous
 62
     8
370
    15
100
AcDbLine
 10
311.2798099763
 20
697.525415677
 30
0.0
 11
311.2798099763
 21
698.275415677
 31
0.0
  0
LINE
  5
21C
330
1F
100
AcDbEntity
  8
0
  6
Continuous
 62
     8
370
    15
100
AcDbLine
 10
705.6798099762
 20
697.525415677
 30
0.0
 11
705.6798099762
 21
698.275415677
 31
0.0
  0
LINE
  5
21D
330
1F
100
AcDbEntity
  8
0
  6
Continuous
 62
     8
370
    15
100
AcDbLine
 10
457.2071798809
 20
206.575415677
 30
0.0
 11
451.3131387516
 21
206.575415677
 31
0.0
  0
SPLINE
  5
21E
330
1F
100
AcDbEntity
  8
0
  6
Continuous
 62
     8
370
    15
100
AcDbSpline
210
0.0
220
0.0
230
1.0
 70
     8
 71
     3
 72
    12
 73
     8
 74
     0
 42
0.00000001
 43
0.00000001
 12
1.0
 22
0.0
 32
0.0
 13
1.0
 23
0.0
 33
0.0
 40
0.0
 40
0.0
 40
0.0
 40
0.0
 40
0.2289440738516132
 40
0.4594214300241636
 40
0.6825355698157791
 40
0.8947175231628802
 40
0.9999999999999999
 40
0.9999999999999999
 40
0.9999999999999999
 40
0.9999999999999999
 10
450.9549119946407
 20
208.0254156769589
 30
0.0
 10
450.9961822284923
 20
208.0080811923814
 30
0.0
 10
451.0789990908575
 20
207.9732961308622
 30
0.0
 10
451.1908331350112
 20
207.69942628505
 30
0.0
 10
451.272169977792
 20
207.3023897505669
 30
0.0
 10
451.308969931423
 20
206.9015137612142
 30
0.0
 10
451.3121005329614
 20
206.6566283681271
 30
0.0
 10
451.3131387515857
 20
206.575415676959
 30
0.0
  0
ARC
  5
21F
330
1F
100
AcDbEntity
  8
0
  6
Continuous
 62
     8
370
    15
100
AcDbCircle
 10
455.1410979577
 20
201.4129323648
 30
0.0
 40
3.828469125924923
100
AcDbArc
 50
179.0648510125
 51
182.8074446632
  0
LINE
  5
220
330
1F
100
AcDbEntity
  8
0
  6
Continuous
 62
     8
370
    15
100
AcDbLine
 10
451.3131387516
 20
201.475415677
 30
0.0
 11
457.2071798809
 21
201.475415677
 31
0.0
  0
LWPOLYLINE
  5
221
330
1F
100
AcDbEntity
  8
0
  6
Continuous
 62
     8
370
    15
100
AcDbPolyline
 90
        9
 70
   128
 43
0.0
 10
457.0668031676
 20
201.225415677
 10
457.0941893058
 20
201.2302193569
 10
457.1205230101
 20
201.2444457938
 10
457.1447922909
 20
201.2675482739
 10
457.1660644935
 20
201.2986389817
 10
457.183522139
 20
201.3365231187
 10
457.1964943399
 20
201.3797448189
 10
457.2044825817
 20
201.4266430965
 10
457.2071798809
 20
201.475415677
  0
LINE
  5
222
330
1F
100
AcDbEntity
  8
0
  6
Continuous
 62
     8
370
    15
100
AcDbLine
 10
457.2071798809
 20
201.475415677
 30
0.0
 11
457.2071798809
 21
206.575415677
 31
0.0
  0
LINE
  5
223
330
1F
100
AcDbEntity
  8
0
  6
Continuous
 62
     8
370
    15
100
AcDbLine
 10
451.3131387516
 20
206.575415677
 30
0.0
 11
451.3131387516
 21
201.475415677
 31
0.0
  0
LINE
  5
224
330
1F
100
AcDbEntity
  8
0
  6
Continuous
 62
     8
370
    15
100
AcDbLine
 10
451.3131387516
 20
206.575415677
 30
0.0
 11
451.0776580249
 21
206.575415677
 31
0.0
  0
SPLINE
  5
225
330
1F
100
AcDbEntity
  8
0
  6
Continuous
 62
     8
370
    15
100
AcDbSpline
210
0.0
220
0.0
230
1.0
 70
     8
 71
     3
 72
    12
 73
     8
 74
     0
 42
0.00000001
 43
0.00000001
 12
1.0
 22
0.0
 32
0.0
 13
1.0
 23
0.0
 33
0.0
 40
0.0
 40
0.0
 40
0.0
 40
0.0
 40
0.104420382643912
 40
0.3151731030979986
 40
0.5377472974586214
 40
0.7690283494734321
 40
1.0
 40
1.0
 40
1.0
 40
1.0
 10
451.0776580249153
 20
206.575415676959
 30
0.0
 10
451.0766347712459
 20
206.6426352455955
 30
0.0
 10
451.0735462742872
 20
206.8455247533686
 30
0.0
 10
451.0371530386187
 20
207.1778821185335
 30
0.0
 10
450.9561029972389
 20
207.5065269067871
 30
0.0
 10
450.8434400095817
 20
207.7325886196632
 30
0.0
 10
450.7580250721072
 20
207.7611463627506
 30
0.0
 10
450.7153461889343
 20
207.7754156769589
 30
0.0
  0
ARC
  5
226
330
1F
100
AcDbEntity
  8
0
  6
Continuous
 62
     8
370
    15
100
AcDbCircle
 10
450.9602427061
 20
207.7805239017
 30
0.0
 40
0.2449497868474806
100
AcDbArc
 50
91.2469959078
 51
181.1949426056
  0
LINE
  5
227
330
1F
100
AcDbEntity
  8
0
  6
Continuous
 62
     8
370
    15
100
AcDbLine
 10
451.3131387516
 20
201.475415677
 30
0.0
 11
451.0776580249
 21
201.475415677
 31
0.0
  0
LINE
  5
228
330
1F
100
AcDbEntity
  8
0
  6
Continuous
 62
     8
370
    15
100
AcDbLine
 10
451.0776580249
 20
201.475415677
 30
0.0
 11
451.0776580249
 21
206.575415677
 31
0.0
  0
LINE
  5
229
330
1F
100
AcDbEntity
  8
0
  6
Continuous
 62
     8
370
    15
100
AcDbLine
 10
443.863076607
 20
207.075415677
 30
0.0
 11
450.6726117365
 21
207.075415677
 31
0.0
  0
LINE
  5
22A
330
1F
100
AcDbEntity
  8
0
  6
Continuous
 62
     8
370
    15
100
AcDbLine
 10
450.6726117365
 20
207.775415677
 30
0.0
 11
443.863076607
 21
207.775415677
 31
0.0
  0
LINE
  5
22B
330
1F
100
AcDbEntity
  8
0
  6
Continuous
 62
     8
370
    15
100
AcDbLine
 10
450.7153461889
 20
207.775415677
 30
0.0
 11
450.6726117365
 21
207.775415677
 31
0.0
  0
LINE
  5
22C
330
1F
100
AcDbEntity
  8
0
  6
Continuous
 62
     8
370
    15
100
AcDbLine
 10
450.8669691037
 20
201.475415677
 30
0.0
 11
451.0776580249
 21
201.475415677
 31
0.0
  0
LINE
  5
22D
330
1F
100
AcDbEntity
  8
0
  6
Continuous
 62
     8
370
    15
100
AcDbLine
 10
450.8669691037
 20
206.575415677
 30
0.0
 11
450.8669691037
 21
201.475415677
 31
0.0
  0
SPLINE
  5
22E
330
1F
100
AcDbEntity
  8
0
  6
Continuous
 62
     8
370
    15
100
AcDbSpline
210
0.0
220
0.0
230
1.0
 70
     8
 71
     3
 72
    12
 73
     8
 74
     0
 42
0.00000001
 43
0.00000001
 12
1.0
 22
0.0
 32
0.0
 13
1.0
 23
0.0
 33
0.0
 40
0.0
 40
0.0
 40
0.0
 40
0.0
 40
0.1009214352039907
 40
0.3119724040343245
 40
0.5359629038279956
 40
0.7681188099358272
 40
1.0
 40
1.0
 40
1.0
 40
1.0
 10
450.8669691036721
 20
206.575415676959
 30
0.0
 10
450.8665654120022
 20
206.6025366356311
 30
0.0
 10
450.8653175040574
 20
206.686374035085
 30
0.0
 10
450.8502654937801
 20
206.8248452374695
 30
0.0
 10
450.8162749498616
 20
206.9625667754383
 30
0.0
 10
450.7690277109629
 20
207.0573682227496
 30
0.0
 10
450.7332329659578
 20
207.0694022336532
 30
0.0
 10
450.7153461889343
 20
207.0754156769589
 30
0.0
  0
LINE
  5
22F
330
1F
100
AcDbEntity
  8
0
  6
Continuous
 62
     8
370
    15
100
AcDbLine
 10
450.6726117365
 20
207.075415677
 30
0.0
 11
450.7153461889
 21
207.075415677
 31
0.0
  0
ARC
  5
230
330
1F
100
AcDbEntity
  8
0
  6
Continuous
 62
     8
370
    15
100
AcDbCircle
 10
451.1118656208
 20
201.4703074522
 30
0.0
 40
0.2449497868466713
100
AcDbArc
 50
178.8050573941
 51
268.7530040923
  0
ARC
  5
231
330
1F
100
AcDbEntity
  8
0
  6
Continuous
 62
     8
370
    15
100
AcDbCircle
 10
450.9694690095
 20
207.07411042
 30
0.0
 40
0.2541261726947684
100
AcDbArc
 50
179.705712937
 51
228.9080796238
  0
LINE
  5
232
330
1F
100
AcDbEntity
  8
0
  6
Continuous
 62
     8
370
    15
100
AcDbLine
 10
450.8565677423
 20
206.575415677
 30
0.0
 11
450.8669691037
 21
206.575415677
 31
0.0
  0
LINE
  5
233
330
1F
100
AcDbEntity
  8
0
  6
Continuous
 62
     8
370
    15
100
AcDbLine
 10
450.8565349094
 20
201.475415677
 30
0.0
 11
450.8669691037
 21
201.475415677
 31
0.0
  0
LINE
  5
234
330
1F
100
AcDbEntity
  8
0
  6
Continuous
 62
     8
370
    15
100
AcDbLine
 10
457.3168031676
 20
201.475415677
 30
0.0
 11
457.2071798809
 21
201.475415677
 31
0.0
  0
LINE
  5
235
330
1F
100
AcDbEntity
  8
0
  6
Continuous
 62
     8
370
    15
100
AcDbLine
 10
457.2296619095
 20
207.075415677
 30
0.0
 11
460.1798099762
 21
207.075415677
 31
0.0
  0
LINE
  5
236
330
1F
100
AcDbEntity
  8
0
  6
Continuous
 62
     8
370
    15
100
AcDbLine
 10
460.1798099762
 20
207.775415677
 30
0.0
 11
456.9013226848
 21
207.775415677
 31
0.0
  0
LINE
  5
237
330
1F
100
AcDbEntity
  8
0
  6
Continuous
 62
     8
370
    15
100
AcDbLine
 10
445.8639399005
 20
205.233148759
 30
0.0
 11
445.8639399005
 21
205.625415677
 31
0.0
  0
LINE
  5
238
330
1F
100
AcDbEntity
  8
0
  6
Continuous
 62
     8
370
    15
100
AcDbLine
 10
445.6532509792
 20
201.475415677
 30
0.0
 11
445.7196601447
 21
201.475415677
 31
0.0
  0
LINE
  5
239
330
1F
100
AcDbEntity
  8
0
  6
Continuous
 62
     8
370
    15
100
AcDbLine
 10
445.6532509792
 20
205.625415677
 30
0.0
 11
445.6532509792
 21
201.475415677
 31
0.0
  0
LINE
  5
23A
330
1F
100
AcDbEntity
  8
0
  6
Continuous
 62
     8
370
    15
100
AcDbLine
 10
446.248811227
 20
205.625415677
 30
0.0
 11
446.248811227
 21
205.4920484869
 31
0.0
  0
ARC
  5
23B
330
1F
100
AcDbEntity
  8
0
  6
Continuous
 62
     8
370
    15
100
AcDbCircle
 10
445.9089847666
 20
201.4745702349
 30
0.0
 40
0.2557351848287728
100
AcDbArc
 50
179.8105839372
 51
222.2417348363
  0
LINE
  5
23C
330
1F
100
AcDbEntity
  8
0
  6
Continuous
 62
     8
370
    15
100
AcDbLine
 10
445.6532509792
 20
201.475415677
 30
0.0
 11
445.6428167849
 21
201.475415677
 31
0.0
  0
LINE
  5
23D
330
1F
100
AcDbEntity
  8
0
  6
Continuous
 62
     8
370
    15
100
AcDbLine
 10
460.0697891823
 20
206.575415677
 30
0.0
 11
457.3168031676
 21
206.575415677
 31
0.0
  0
LINE
  5
23E
330
1F
100
AcDbEntity
  8
0
  6
Continuous
 62
     8
370
    15
100
AcDbLine
 10
450.8528566957
 20
206.575415677
 30
0.0
 11
444.3314307456
 21
206.575415677
 31
0.0
  0
LINE
  5
23F
330
1F
100
AcDbEntity
  8
0
  6
Continuous
 62
     8
370
    15
100
AcDbLine
 10
444.3314307456
 20
205.875415677
 30
0.0
 11
450.8565349094
 21
205.875415677
 31
0.0
  0
LINE
  5
240
330
1F
100
AcDbEntity
  8
0
  6
Continuous
 62
     8
370
    15
100
AcDbLine
 10
457.3168031676
 20
205.875415677
 30
0.0
 11
460.0697891823
 21
205.875415677
 31
0.0
  0
LINE
  5
241
330
1F
100
AcDbEntity
  8
0
  6
Continuous
 62
     8
370
    15
100
AcDbLine
 10
441.2798099762
 20
207.075415677
 30
0.0
 11
442.6787532977
 21
207.075415677
 31
0.0
  0
LINE
  5
242
330
1F
100
AcDbEntity
  8
0
  6
Continuous
 62
     8
370
    15
100
AcDbLine
 10
442.6787532977
 20
207.075415677
 30
0.0
 11
442.9499116241
 21
207.075415677
 31
0.0
  0
SPLINE
  5
243
330
1F
100
AcDbEntity
  8
0
  6
Continuous
 62
     8
370
    15
100
AcDbSpline
210
0.0
220
0.0
230
1.0
 70
     8
 71
     3
 72
    12
 73
     8
 74
     0
 42
0.00000001
 43
0.00000001
 12
1.0
 22
0.0
 32
0.0
 13
1.0
 23
0.0
 33
0.0
 40
0.0
 40
0.0
 40
0.0
 40
0.0
 40
0.1044203826439126
 40
0.3151731030980004
 40
0.5377472974586252
 40
0.7690283494734338
 40
0.9999999999999999
 40
0.9999999999999999
 40
0.9999999999999999
 40
0.9999999999999999
 10
442.949911624129
 20
207.0754156769589
 30
0.0
 10
442.9534017055116
 20
207.0081961083223
 30
0.0
 10
442.9639358536497
 20
206.8053066005492
 30
0.0
 10
443.0880647554605
 20
206.4729492353843
 30
0.0
 10
443.3645076834779
 20
206.1443044471308
 30
0.0
 10
443.7487750528312
 20
205.9182427342546
 30
0.0
 10
444.0401056309517
 20
205.8896849911672
 30
0.0
 10
444.1856734212694
 20
205.8754156769589
 30
0.0
  0
ARC
  5
244
330
1F
100
AcDbEntity
  8
0
  6
Continuous
 62
     8
370
    15
100
AcDbCircle
 10
443.8622838628
 20
205.8159899528
 30
0.0
 40
0.3288042323323803
100
AcDbArc
 50
324.5777268431
 51
10.4124488136
  0
LINE
  5
245
330
1F
100
AcDbEntity
  8
0
  6
Continuous
 62
     8
370
    15
100
AcDbLine
 10
442.6787532977
 20
207.075415677
 30
0.0
 11
442.6787532977
 21
212.175415677
 31
0.0
  0
LINE
  5
246
330
1F
100
AcDbEntity
  8
0
  6
Continuous
 62
     8
370
    15
100
AcDbLine
 10
442.6787532977
 20
212.175415677
 30
0.0
 11
442.9499116241
 21
212.175415677
 31
0.0
  0
LINE
  5
247
330
1F
100
AcDbEntity
  8
0
  6
Continuous
 62
     8
370
    15
100
AcDbLine
 10
442.9499116241
 20
212.175415677
 30
0.0
 11
442.9499116241
 21
207.075415677
 31
0.0
  0
ARC
  5
248
330
1F
100
AcDbEntity
  8
0
  6
Continuous
 62
     8
370
    15
100
AcDbCircle
 10
442.6265220657
 20
212.2348414011
 30
0.0
 40
0.3288042323305493
100
AcDbArc
 50
349.5875511862
 51
35.4222731569
  0
ARC
  5
249
330
1F
100
AcDbEntity
  8
0
  6
Continuous
 62
     8
370
    15
100
AcDbCircle
 10
442.912971912
 20
212.1913839352
 30
0.0
 40
0.2347623149371361
100
AcDbArc
 50
94.5213484738
 51
183.9002033129
  0
LINE
  5
24A
330
1F
100
AcDbEntity
  8
0
  6
Continuous
 62
     8
370
    15
100
AcDbLine
 10
444.1856734213
 20
205.875415677
 30
0.0
 11
444.3314307456
 21
205.875415677
 31
0.0
  0
LINE
  5
24B
330
1F
100
AcDbEntity
  8
0
  6
Continuous
 62
     8
370
    15
100
AcDbLine
 10
443.6685227599
 20
212.175415677
 30
0.0
 11
442.9499116241
 21
212.175415677
 31
0.0
  0
LINE
  5
24C
330
1F
100
AcDbEntity
  8
0
  6
Continuous
 62
     8
370
    15
100
AcDbLine
 10
443.6685227599
 20
207.075415677
 30
0.0
 11
443.6685227599
 21
212.175415677
 31
0.0
  0
SPLINE
  5
24D
330
1F
100
AcDbEntity
  8
0
  6
Continuous
 62
     8
370
    15
100
AcDbSpline
210
0.0
220
0.0
230
1.0
 70
     8
 71
     3
 72
    12
 73
     8
 74
     0
 42
0.00000001
 43
0.00000001
 12
1.0
 22
0.0
 32
0.0
 13
1.0
 23
0.0
 33
0.0
 40
0.0
 40
0.0
 40
0.0
 40
0.0
 40
0.1009214352039912
 40
0.3119724040343294
 40
0.5359629038280038
 40
0.7681188099358345
 40
1.0
 40
1.0
 40
1.0
 40
1.0
 10
443.6685227598871
 20
207.0754156769589
 30
0.0
 10
443.6698996587185
 20
207.0482947182867
 30
0.0
 10
443.6741559838259
 20
206.9644573188328
 30
0.0
 10
443.7254949063343
 20
206.8259861164483
 30
0.0
 10
443.8414287828108
 20
206.6882645784795
 30
0.0
 10
444.0025781769317
 20
206.5934631311682
 30
0.0
 10
444.1246657656411
 20
206.5814291202646
 30
0.0
 10
444.1856734212694
 20
206.5754156769589
 30
0.0
  0
LINE
  5
24E
330
1F
100
AcDbEntity
  8
0
  6
Continuous
 62
     8
370
    15
100
AcDbLine
 10
444.3314307456
 20
206.575415677
 30
0.0
 11
444.1856734213
 21
206.575415677
 31
0.0
  0
ARC
  5
24F
330
1F
100
AcDbEntity
  8
0
  6
Continuous
 62
     8
370
    15
100
AcDbCircle
 10
443.3451332014
 20
212.2348414011
 30
0.0
 40
0.3288042323273722
100
AcDbArc
 50
349.5875511859
 51
35.4222731571
  0
LINE
  5
250
330
1F
100
AcDbEntity
  8
0
  6
Continuous
 62
     8
370
    15
100
AcDbLine
 10
442.6787532977
 20
212.175415677
 30
0.0
 11
441.2798099762
 21
212.175415677
 31
0.0
  0
ARC
  5
251
330
1F
100
AcDbEntity
  8
0
  6
Continuous
 62
     8
370
    15
100
AcDbCircle
 10
443.8622838628
 20
206.6348414011
 30
0.0
 40
0.3288042323321692
100
AcDbArc
 50
349.5875511864
 51
35.4222731569
  0
LINE
  5
252
330
1F
100
AcDbEntity
  8
0
  6
Continuous
 62
     8
370
    15
100
AcDbLine
 10
443.8630728261
 20
207.075415677
 30
0.0
 11
443.6685227599
 21
207.075415677
 31
0.0
  0
LINE
  5
253
330
1F
100
AcDbEntity
  8
0
  6
Continuous
 62
     8
370
    15
100
AcDbLine
 10
443.863076607
 20
212.175415677
 30
0.0
 11
443.6685227599
 21
212.175415677
 31
0.0
  0
LINE
  5
254
330
1F
100
AcDbEntity
  8
0
  6
Continuous
 62
     8
370
    15
100
AcDbLine
 10
460.2155465066
 20
206.575415677
 30
0.0
 11
460.0697891823
 21
206.575415677
 31
0.0
  0
ARC
  5
255
330
1F
100
AcDbEntity
  8
0
  6
Continuous
 62
     8
370
    15
100
AcDbCircle
 10
459.8921569482
 20
206.6348414011
 30
0.0
 40
0.3288042323315146
100
AcDbArc
 50
349.5875511863
 51
35.4222731568
  0
LINE
  5
256
330
1F
100
AcDbEntity
  8
0
  6
Continuous
 62
     8
370
    15
100
AcDbLine
 10
460.0697891823
 20
205.875415677
 30
0.0
 11
460.2155465066
 21
205.875415677
 31
0.0
  0
ARC
  5
257
330
1F
100
AcDbEntity
  8
0
  6
Continuous
 62
     8
370
    15
100
AcDbCircle
 10
459.8921569482
 20
205.8159899528
 30
0.0
 40
0.3288042323310389
100
AcDbArc
 50
324.5777268431
 51
10.4124488138
  0
LINE
  5
258
330
1F
100
AcDbEntity
  8
0
  6
Continuous
 62
     8
370
    15
100
AcDbLine
 10
460.732697168
 20
212.175415677
 30
0.0
 11
460.732697168
 21
207.075415677
 31
0.0
  0
LINE
  5
259
330
1F
100
AcDbEntity
  8
0
  6
Continuous
 62
     8
370
    15
100
AcDbLine
 10
461.4513083038
 20
212.175415677
 30
0.0
 11
460.732697168
 21
212.175415677
 31
0.0
  0
LINE
  5
25A
330
1F
100
AcDbEntity
  8
0
  6
Continuous
 62
     8
370
    15
100
AcDbLine
 10
461.4513083038
 20
207.075415677
 30
0.0
 11
461.4513083038
 21
212.175415677
 31
0.0
  0
SPLINE
  5
25B
330
1F
100
AcDbEntity
  8
0
  6
Continuous
 62
     8
370
    15
100
AcDbSpline
210
0.0
220
0.0
230
1.0
 70
     8
 71
     3
 72
    12
 73
     8
 74
     0
 42
0.00000001
 43
0.00000001
 12
1.0
 22
0.0
 32
0.0
 13
1.0
 23
0.0
 33
0.0
 40
0.0
 40
0.0
 40
0.0
 40
0.0
 40
0.178960157790417
 40
0.3929009169381244
 40
0.5976976172812568
 40
0.7987833678438174
 40
1.0
 40
1.0
 40
1.0
 40
1.0
 10
460.2155465066134
 20
205.8754156769591
 30
0.0
 10
460.3281291168132
 20
205.884027646813
 30
0.0
 10
460.5753003940683
 20
205.9029349326247
 30
0.0
 10
460.9254572918593
 20
206.0664709577769
 30
0.0
 10
461.2169839727744
 20
206.3370432695426
 30
0.0
 10
461.4133442018947
 20
206.6851733891023
 30
0.0
 10
461.438650858784
 20
206.9453067044958
 30
0.0
 10
461.4513083037536
 20
207.0754156769592
 30
0.0
  0
SPLINE
  5
25C
330
1F
100
AcDbEntity
  8
0
  6
Continuous
 62
     8
370
    15
100
AcDbSpline
210
0.0
220
0.0
230
1.0
 70
     8
 71
     3
 72
    12
 73
     8
 74
     0
 42
0.00000001
 43
0.00000001
 12
1.0
 22
0.0
 32
0.0
 13
1.0
 23
0.0
 33
0.0
 40
0.0
 40
0.0
 40
0.0
 40
0.0
 40
0.1818603118646043
 40
0.3964966430177625
 40
0.6005836871107024
 40
0.800212370330535
 40
1.0
 40
1.0
 40
1.0
 40
1.0
 10
460.2155465066134
 20
206.5754156769592
 30
0.0
 10
460.2633143283647
 20
206.579133428553
 30
0.0
 10
460.3674589917853
 20
206.5872389685218
 30
0.0
 10
460.5141109838938
 20
206.6563936675284
 30
0.0
 10
460.635339445089
 20
206.7692330744822
 30
0.0
 10
460.7169044446873
 20
206.9136541752275
 30
0.0
 10
460.7274315304858
 20
207.021480873285
 30
0.0
 10
460.7326971679952
 20
207.0754156769592
 30
0.0
  0
LINE
  5
25D
330
1F
100
AcDbEntity
  8
0
  6
Continuous
 62
     8
370
    15
100
AcDbLine
 10
461.4513083038
 20
207.075415677
 30
0.0
 11
461.6450091904
 21
207.075415677
 31
0.0
  0
SPLINE
  5
25E
330
1F
100
AcDbEntity
  8
0
  6
Continuous
 62
     8
370
    15
100
AcDbSpline
210
0.0
220
0.0
230
1.0
 70
     8
 71
     3
 72
    12
 73
     8
 74
     0
 42
0.00000001
 43
0.00000001
 12
1.0
 22
0.0
 32
0.0
 13
1.0
 23
0.0
 33
0.0
 40
0.0
 40
0.0
 40
0.0
 40
0.0
 40
0.2028202020467325
 40
0.4049472449426448
 40
0.60983120307403
 40
0.8226939241827421
 40
1.0
 40
1.0
 40
1.0
 40
1.0
 10
461.6450091904168
 20
207.0754156769592
 30
0.0
 10
461.6298069505586
 20
206.9182748364238
 30
0.0
 10
461.5994544260793
 20
206.6045302005312
 30
0.0
 10
461.363718366646
 20
206.1841339500617
 30
0.0
 10
461.0135246405825
 20
205.8570554146221
 30
0.0
 10
460.5926640895914
 20
205.658846148356
 30
0.0
 10
460.2952537891047
 20
205.635860942434
 30
0.0
 10
460.1601003537138
 20
205.6254156769591
 30
0.0
  0
LINE
  5
25F
330
1F
100
AcDbEntity
  8
0
  6
Continuous
 62
     8
370
    15
100
AcDbLine
 10
460.732697168
 20
207.075415677
 30
0.0
 11
460.4272510151
 21
207.075415677
 31
0.0
  0
LINE
  5
260
330
1F
100
AcDbEntity
  8
0
  6
Continuous
 62
     8
370
    15
100
AcDbLine
 10
460.732697168
 20
212.175415677
 30
0.0
 11
460.4272510151
 21
212.175415677
 31
0.0
  0
ARC
  5
261
330
1F
100
AcDbEntity
  8
0
  6
Continuous
 62
     8
370
    15
100
AcDbCircle
 10
460.4093076096
 20
212.2348414011
 30
0.0
 40
0.3288042323271993
100
AcDbArc
 50
349.587551186
 51
35.4222731572
  0
LINE
  5
262
330
1F
100
AcDbEntity
  8
0
  6
Continuous
 62
     8
370
    15
100
AcDbLine
 10
461.6450091904
 20
207.075415677
 30
0.0
 11
461.6798099762
 21
207.075415677
 31
0.0
  0
ARC
  5
263
330
1F
100
AcDbEntity
  8
0
  6
Continuous
 62
     8
370
    15
100
AcDbCircle
 10
461.1279187453
 20
212.2348414011
 30
0.0
 40
0.3288042323287512
100
AcDbArc
 50
349.587551186
 51
35.422273157
  0
LINE
  5
264
330
1F
100
AcDbEntity
  8
0
  6
Continuous
 62
     8
370
    15
100
AcDbLine
 10
460.1798099762
 20
207.075415677
 30
0.0
 11
460.4272510151
 21
207.075415677
 31
0.0
  0
LINE
  5
265
330
1F
100
AcDbEntity
  8
0
  6
Continuous
 62
     8
370
    15
100
AcDbLine
 10
461.4513083038
 20
212.175415677
 30
0.0
 11
461.6450091904
 21
212.175415677
 31
0.0
  0
LINE
  5
266
330
1F
100
AcDbEntity
  8
0
  6
Continuous
 62
     8
370
    15
100
AcDbLine
 10
461.6450091904
 20
212.175415677
 30
0.0
 11
461.6450091904
 21
207.075415677
 31
0.0
  0
ARC
  5
267
330
1F
100
AcDbEntity
  8
0
  6
Continuous
 62
     8
370
    15
100
AcDbCircle
 10
461.3954349406
 20
212.1758414296
 30
0.0
 40
0.2495746129627239
100
AcDbArc
 50
359.9022583145
 51
89.9019236932
  0
LINE
  5
268
330
1F
100
AcDbEntity
  8
0
  6
Continuous
 62
     8
370
    15
100
AcDbLine
 10
460.4272510151
 20
212.175415677
 30
0.0
 11
459.1339289301
 21
212.175415677
 31
0.0
  0
ARC
  5
269
330
1F
100
AcDbEntity
  8
0
  6
Continuous
 62
     8
370
    15
100
AcDbCircle
 10
459.3668795846
 20
212.1927107873
 30
0.0
 40
0.233591798399508
100
AcDbArc
 50
94.994428697
 51
184.2460585011
  0
LINE
  5
26A
330
1F
100
AcDbEntity
  8
0
  6
Continuous
 62
     8
370
    15
100
AcDbLine
 10
459.1339289301
 20
212.175415677
 30
0.0
 11
459.1339289301
 21
208.025415677
 31
0.0
  0
LINE
  5
26B
330
1F
100
AcDbEntity
  8
0
  6
Continuous
 62
     8
370
    15
100
AcDbLine
 10
461.6798099762
 20
212.175415677
 30
0.0
 11
461.6450091904
 21
212.175415677
 31
0.0
  0
LINE
  5
26C
330
1F
100
AcDbEntity
  8
0
  6
Continuous
 62
     8
370
    15
100
AcDbLine
 10
459.1339289301
 20
212.175415677
 30
0.0
 11
459.0965433455
 21
212.175415677
 31
0.0
  0
LINE
  5
26D
330
1F
100
AcDbEntity
  8
0
  6
Continuous
 62
     8
370
    15
100
AcDbLine
 10
708.4798099763
 20
757.9896929038
 30
0.0
 11
308.4798099763
 21
757.9896929038
 31
0.0
  0
LINE
  5
26E
330
1F
100
AcDbEntity
  8
0
  6
Continuous
 62
     8
370
    15
100
AcDbLine
 10
708.4798099763
 20
748.8611384502
 30
0.0
 11
308.4798099763
 21
748.8611384502
 31
0.0
  0
LINE
  5
26F
330
1F
100
AcDbEntity
  8
0
  6
Continuous
 62
     8
370
    15
100
AcDbLine
 10
708.4798099763
 20
704.6611384502
 30
0.0
 11
308.4798099763
 21
704.6611384502
 31
0.0
  0
LINE
  5
270
330
1F
100
AcDbEntity
  8
0
  6
Continuous
 62
     8
370
    15
100
AcDbLine
 10
686.9798099763
 20
877.882361721
 30
0.0
 11
708.4798099763
 21
877.882361721
 31
0.0
  0
LINE
  5
271
330
1F
100
AcDbEntity
  8
0
  6
Continuous
 62
     8
370
    15
100
AcDbLine
 10
308.4798099763
 20
877.882361721
 30
0.0
 11
329.9798099763
 21
877.882361721
 31
0.0
  0
LINE
  5
272
330
1F
100
AcDbEntity
  8
0
  6
Continuous
 62
     8
370
    15
100
AcDbLine
 10
708.4798099763
 20
879.543519282
 30
0.0
 11
686.9798099763
 21
879.543519282
 31
0.0
  0
LINE
  5
273
330
1F
100
AcDbEntity
  8
0
  6
Continuous
 62
     8
370
    15
100
AcDbLine
 10
329.9798099763
 20
879.543519282
 30
0.0
 11
308.4798099763
 21
879.543519282
 31
0.0
  0
LINE
  5
274
330
1F
100
AcDbEntity
  8
0
  6
Continuous
 62
     8
370
    15
100
AcDbLine
 10
708.4798099762
 20
931.3539965361
 30
0.0
 11
308.4798099762
 21
931.3539965361
 31
0.0
  0
LINE
  5
275
330
1F
100
AcDbEntity
  8
0
  6
Continuous
 62
     8
370
    15
100
AcDbLine
 10
708.4798099762
 20
900.3914410844
 30
0.0
 11
308.4798099762
 21
900.3914410844
 31
0.0
  0
LINE
  5
276
330
1F
100
AcDbEntity
  8
0
  6
Continuous
 62
     8
370
    15
100
AcDbLine
 10
708.4798099762
 20
894.5871667809
 30
0.0
 11
308.4798099762
 21
894.5871667809
 31
0.0
  0
LINE
  5
277
330
1F
100
AcDbEntity
  8
0
  6
Continuous
 62
     8
370
    15
100
AcDbLine
 10
708.4798099762
 20
950.675415677
 30
0.0
 11
308.4798099762
 21
950.675415677
 31
0.0
  0
LINE
  5
278
330
1F
100
AcDbEntity
  8
0
  6
Continuous
 62
     8
370
    15
100
AcDbLine
 10
708.4798099762
 20
962.175415677
 30
0.0
 11
308.4798099762
 21
962.175415677
 31
0.0
  0
LINE
  5
279
330
1F
100
AcDbEntity
  8
0
  6
Continuous
 62
     8
370
    15
100
AcDbLine
 10
318.4798099762
 20
975.925415677
 30
0.0
 11
308.9798099762
 21
975.925415677
 31
0.0
  0
LINE
  5
27A
330
1F
100
AcDbEntity
  8
0
  6
Continuous
 62
     8
370
    15
100
AcDbLine
 10
327.9798099762
 20
975.925415677
 30
0.0
 11
318.4798099762
 21
975.925415677
 31
0.0
  0
LINE
  5
27B
330
1F
100
AcDbEntity
  8
0
  6
Continuous
 62
     8
370
    15
100
AcDbLine
 10
698.4798099762
 20
975.925415677
 30
0.0
 11
688.9798099762
 21
975.925415677
 31
0.0
  0
LINE
  5
27C
330
1F
100
AcDbEntity
  8
0
  6
Continuous
 62
     8
370
    15
100
AcDbLine
 10
707.9798099762
 20
975.925415677
 30
0.0
 11
698.4798099762
 21
975.925415677
 31
0.0
  0
ENDSEC
  0
SECTION
  2
OBJECTS
  0
DICTIONARY
  5
C
330
0
100
AcDbDictionary
281
     1
  3
ACAD_GROUP
350
D
  3
ACAD_LAYOUT
350
1A
  3
ACAD_MLINESTYLE
350
17
  3
ACAD_PLOTSETTINGS
350
19
  3
ACAD_PLOTSTYLENAME
350
E
  0
DICTIONARY
  5
D
102
{ACAD_REACTORS
330
C
102
}
330
C
100
AcDbDictionary
281
     1
  0
DICTIONARY
  5
1A
102
{ACAD_REACTORS
330
C
102
}
330
C
100
AcDbDictionary
281
     1
  3
Layout1
350
1E
  3
Layout2
350
26
  3
Model
350
22
  0
DICTIONARY
  5
17
102
{ACAD_REACTORS
330
C
102
}
330
C
100
AcDbDictionary
281
     1
  3
Standard
350
18
  0
DICTIONARY
  5
19
102
{ACAD_REACTORS
330
C
102
}
330
C
100
AcDbDictionary
281
     1
  0
ACDBDICTIONARYWDFLT
  5
E
102
{ACAD_REACTORS
330
C
102
}
330
C
100
AcDbDictionary
281
     1
  3
Normal
350
F
100
AcDbDictionaryWithDefault
340
F
  0
LAYOUT
  5
1E
102
{ACAD_REACTORS
330
1A
102
}
330
1A
100
AcDbPlotSettings
  1

  2
none_device
  4

  6

 40
0.0
 41
0.0
 42
0.0
 43
0.0
 44
0.0
 45
0.0
 46
0.0
 47
0.0
 48
0.0
 49
0.0
140
0.0
141
0.0
142
1.0
143
1.0
 70
   688
 72
     0
 73
     0
 74
     5
  7

 75
    16
147
1.0
148
0.0
149
0.0
100
AcDbLayout
  1
Layout1
 70
     1
 71
     1
 10
0.0
 20
0.0
 11
420.0
 21
297.0
 12
0.0
 22
0.0
 32
0.0
 14
1.0000000000E+20
 24
1.0000000000E+20
 34
1.0000000000E+20
 15
-1.0000000000E+20
 25
-1.0000000000E+20
 35
-1.0000000000E+20
146
0.0
 13
0.0
 23
0.0
 33
0.0
 16
1.0
 26
0.0
 36
0.0
 17
0.0
 27
1.0
 37
0.0
 76
     0
330
1B
  0
LAYOUT
  5
26
102
{ACAD_REACTORS
330
1A
102
}
330
1A
100
AcDbPlotSettings
  1

  2
none_device
  4

  6

 40
0.0
 41
0.0
 42
0.0
 43
0.0
 44
0.0
 45
0.0
 46
0.0
 47
0.0
 48
0.0
 49
0.0
140
0.0
141
0.0
142
1.0
143
1.0
 70
   688
 72
     0
 73
     0
 74
     5
  7

 75
    16
147
1.0
148
0.0
149
0.0
100
AcDbLayout
  1
Layout2
 70
     1
 71
     2
 10
0.0
 20
0.0
 11
0.0
 21
0.0
 12
0.0
 22
0.0
 32
0.0
 14
0.0
 24
0.0
 34
0.0
 15
0.0
 25
0.0
 35
0.0
146
0.0
 13
0.0
 23
0.0
 33
0.0
 16
1.0
 26
0.0
 36
0.0
 17
0.0
 27
1.0
 37
0.0
 76
     0
330
23
  0
LAYOUT
  5
22
102
{ACAD_REACTORS
330
1A
102
}
330
1A
100
AcDbPlotSettings
  1

  2
none_device
  4

  6

 40
0.0
 41
0.0
 42
0.0
 43
0.0
 44
0.0
 45
0.0
 46
0.0
 47
0.0
 48
0.0
 49
0.0
140
0.0
141
0.0
142
1.0
143
1.0
 70
  1712
 72
     0
 73
     0
 74
     0
  7

 75
     0
147
1.0
148
0.0
149
0.0
100
AcDbLayout
  1
Model
 70
     1
 71
     0
 10
0.0
 20
0.0
 11
1000.0
 21
1000.0
 12
0.0
 22
0.0
 32
0.0
 14
0.0
 24
0.0
 34
0.0
 15
1000.0
 25
1000.0
 35
0.0
146
0.0
 13
0.0
 23
0.0
 33
0.0
 16
1.0
 26
0.0
 36
0.0
 17
0.0
 27
1.0
 37
0.0
 76
     0
330
1F
331
29
  0
MLINESTYLE
  5
18
102
{ACAD_REACTORS
330
17
102
}
330
17
100
AcDbMlineStyle
  2
Standard
 70
     0
  3

 62
   256
 51
90.0
 52
90.0
 71
     2
 49
0.5
 62
   256
  6
BYLAYER
 49
-0.5
 62
   256
  6
BYLAYER
  0
ACDBPLACEHOLDER
  5
F
102
{ACAD_REACTORS
330
E
102
}
330
E
  0
ENDSEC
  0
EOF
