  0
SECTION
  2
HEADER
  9
$ACADVER
  1
AC1015
  9
$ACADMAINTVER
 70
     6
  9
$DWGCODEPAGE
  3
ANSI_1252
  9
$INSBASE
 10
0.0
 20
0.0
 30
0.0
  9
$EXTMIN
 10
0.0
 20
0.0
 30
0.0
  9
$EXTMAX
 10
1000.0
 20
1000.0
 30
0.0
  9
$LIMMIN
 10
0.0
 20
0.0
  9
$LIMMAX
 10
1000.0
 20
1000.0
  9
$ORTHOMODE
 70
     0
  9
$REGENMODE
 70
     1
  9
$FILLMODE
 70
     1
  9
$QTEXTMODE
 70
     0
  9
$MIRRTEXT
 70
     1
  9
$LTSCALE
 40
1.0
  9
$ATTMODE
 70
     1
  9
$TEXTSIZE
 40
3.5
  9
$TRACEWID
 40
1.0
  9
$TEXTSTYLE
  7
Standard
  9
$CLAYER
  8
0
  9
$CELTYPE
  6
ByLayer
  9
$CECOLOR
 62
   256
  9
$CELTSCALE
 40
1.0
  9
$DISPSILH
 70
     0
  9
$DIMSCALE
 40
1.0
  9
$DIMASZ
 40
3.302
  9
$DIMEXO
 40
1.0
  9
$DIMDLI
 40
3.75
  9
$DIMRND
 40
0.0
  9
$DIMDLE
 40
0.0
  9
$DIMEXE
 40
1.0
  9
$DIMTP
 40
0.0
  9
$DIMTM
 40
0.0
  9
$DIMTXT
 40
3.5
  9
$DIMCEN
 40
2.5
  9
$DIMTSZ
 40
0.0
  9
$DIMTOL
 70
     0
  9
$DIMLIM
 70
     0
  9
$DIMTIH
 70
     1
  9
$DIMTOH
 70
     1
  9
$DIMSE1
 70
     0
  9
$DIMSE2
 70
     0
  9
$DIMTAD
 70
     1
  9
$DIMZIN
 70
     0
  9
$DIMBLK
  1

  9
$DIMASO
 70
     1
  9
$DIMSHO
 70
     1
  9
$DIMPOST
  1

  9
$DIMAPOST
  1

  9
$DIMALT
 70
     0
  9
$DIMALTD
 70
     3
  9
$DIMALTF
 40
0.0393700787
  9
$DIMLFAC
 40
1.0
  9
$DIMTOFL
 70
     1
  9
$DIMTVP
 40
0.0
  9
$DIMTIX
 70
     0
  9
$DIMSOXD
 70
     0
  9
$DIMSAH
 70
     0
  9
$DIMBLK1
  1

  9
$DIMBLK2
  1

  9
$DIMSTYLE
  2
ISO-25
  9
$DIMCLRD
 70
     0
  9
$DIMCLRE
 70
     0
  9
$DIMCLRT
 70
     0
  9
$DIMTFAC
 40
1.0
  9
$DIMGAP
 40
1.524
  9
$DIMJUST
 70
     0
  9
$DIMSD1
 70
     0
  9
$DIMSD2
 70
     0
  9
$DIMTOLJ
 70
     0
  9
$DIMTZIN
 70
     0
  9
$DIMALTZ
 70
     0
  9
$DIMALTTZ
 70
     0
  9
$DIMUPT
 70
     0
  9
$DIMDEC
 70
     1
  9
$DIMTDEC
 70
     1
  9
$DIMALTU
 70
     2
  9
$DIMALTTD
 70
     3
  9
$DIMTXSTY
  7
Standard
  9
$DIMAUNIT
 70
     0
  9
$DIMADEC
 70
     1
  9
$DIMALTRND
 40
0.0
  9
$DIMAZIN
 70
     0
  9
$DIMDSEP
 70
    44
  9
$DIMATFIT
 70
     3
  9
$DIMFRAC
 70
     0
  9
$DIMLDRBLK
  1

  9
$DIMLUNIT
 70
     2
  9
$DIMLWD
 70
    -2
  9
$DIMLWE
 70
    -2
  9
$DIMTMOVE
 70
     0
  9
$LUNITS
 70
     2
  9
$LUPREC
 70
     1
  9
$SKETCHINC
 40
1.0
  9
$FILLETRAD
 40
10.0
  9
$AUNITS
 70
     0
  9
$AUPREC
 70
     1
  9
$MENU
  1
.
  9
$ELEVATION
 40
0.0
  9
$PELEVATION
 40
0.0
  9
$THICKNESS
 40
0.0
  9
$LIMCHECK
 70
     0
  9
$CHAMFERA
 40
10.0
  9
$CHAMFERB
 40
10.0
  9
$CHAMFERC
 40
20.0
  9
$CHAMFERD
 40
0.0
  9
$SKPOLY
 70
     0
  9
$TDCREATE
 40
2457423.354504074
  9
$TDUCREATE
 40
2457423.354504074
  9
$TDUPDATE
 40
2457423.35450456
  9
$TDUUPDATE
 40
2457423.35450456
  9
$TDINDWG
 40
0.0000000116
  9
$TDUSRTIMER
 40
0.0000000116
  9
$USRTIMER
 70
     1
  9
$ANGBASE
 50
0.0
  9
$ANGDIR
 70
     0
  9
$PDMODE
 70
     0
  9
$PDSIZE
 40
-1.0
  9
$PLINEWID
 40
0.0
  9
$SPLFRAME
 70
     0
  9
$SPLINETYPE
 70
     6
  9
$SPLINESEGS
 70
     8
  9
$HANDSEED
  5
16F
  9
$SURFTAB1
 70
     6
  9
$SURFTAB2
 70
     6
  9
$SURFTYPE
 70
     6
  9
$SURFU
 70
     6
  9
$SURFV
 70
     6
  9
$UCSBASE
  2

  9
$UCSNAME
  2

  9
$UCSORG
 10
0.0
 20
0.0
 30
0.0
  9
$UCSXDIR
 10
1.0
 20
0.0
 30
0.0
  9
$UCSYDIR
 10
0.0
 20
1.0
 30
0.0
  9
$UCSORTHOREF
  2

  9
$UCSORTHOVIEW
 70
     0
  9
$UCSORGTOP
 10
0.0
 20
0.0
 30
0.0
  9
$UCSORGBOTTOM
 10
0.0
 20
0.0
 30
0.0
  9
$UCSORGLEFT
 10
0.0
 20
0.0
 30
0.0
  9
$UCSORGRIGHT
 10
0.0
 20
0.0
 30
0.0
  9
$UCSORGFRONT
 10
0.0
 20
0.0
 30
0.0
  9
$UCSORGBACK
 10
0.0
 20
0.0
 30
0.0
  9
$PUCSBASE
  2

  9
$PUCSNAME
  2

  9
$PUCSORG
 10
0.0
 20
0.0
 30
0.0
  9
$PUCSXDIR
 10
1.0
 20
0.0
 30
0.0
  9
$PUCSYDIR
 10
0.0
 20
1.0
 30
0.0
  9
$PUCSORTHOREF
  2

  9
$PUCSORTHOVIEW
 70
     0
  9
$PUCSORGTOP
 10
0.0
 20
0.0
 30
0.0
  9
$PUCSORGBOTTOM
 10
0.0
 20
0.0
 30
0.0
  9
$PUCSORGLEFT
 10
0.0
 20
0.0
 30
0.0
  9
$PUCSORGRIGHT
 10
0.0
 20
0.0
 30
0.0
  9
$PUCSORGFRONT
 10
0.0
 20
0.0
 30
0.0
  9
$PUCSORGBACK
 10
0.0
 20
0.0
 30
0.0
  9
$USERI1
 70
     0
  9
$USERI2
 70
     0
  9
$USERI3
 70
     0
  9
$USERI4
 70
     0
  9
$USERI5
 70
     0
  9
$USERR1
 40
0.0
  9
$USERR2
 40
0.0
  9
$USERR3
 40
0.0
  9
$USERR4
 40
0.0
  9
$USERR5
 40
0.0
  9
$WORLDVIEW
 70
     1
  9
$SHADEDGE
 70
     3
  9
$SHADEDIF
 70
    70
  9
$TILEMODE
 70
     1
  9
$MAXACTVP
 70
    64
  9
$PINSBASE
 10
0.0
 20
0.0
 30
0.0
  9
$PLIMCHECK
 70
     0
  9
$PEXTMIN
 10
1.0000000000E+20
 20
1.0000000000E+20
 30
1.0000000000E+20
  9
$PEXTMAX
 10
-1.0000000000E+20
 20
-1.0000000000E+20
 30
-1.0000000000E+20
  9
$PLIMMIN
 10
0.0
 20
0.0
  9
$PLIMMAX
 10
420.0
 20
297.0
  9
$UNITMODE
 70
     0
  9
$VISRETAIN
 70
     1
  9
$PLINEGEN
 70
     0
  9
$PSLTSCALE
 70
     1
  9
$TREEDEPTH
 70
  3020
  9
$CMLSTYLE
  2
Standard
  9
$CMLJUST
 70
     0
  9
$CMLSCALE
 40
20.0
  9
$PROXYGRAPHICS
 70
     1
  9
$MEASUREMENT
 70
     1
  9
$CELWEIGHT
370
    -1
  9
$ENDCAPS
280
     0
  9
$JOINSTYLE
280
     0
  9
$LWDISPLAY
290
     1
  9
$INSUNITS
 70
     4
  9
$HYPERLINKBASE
  1

  9
$STYLESHEET
  1

  9
$XEDIT
290
     1
  9
$CEPSNTYPE
380
     0
  9
$PSTYLEMODE
290
     1
  9
$FINGERPRINTGUID
  2
{C4A385C6-157E-4FC5-B5CF-F7D63208E117}
  9
$VERSIONGUID
  2
{FAEB1C32-E019-11D5-929B-00C0DF256EC4}
  9
$EXTNAMES
290
     1
  9
$PSVPSCALE
 40
0.0
  9
$OLESTARTUP
290
     0
  0
ENDSEC
  0
SECTION
  2
CLASSES
  0
CLASS
  1
ACDBDICTIONARYWDFLT
  2
AcDbDictionaryWithDefault
  3
ObjectDBX Classes
 90
        0
280
     0
281
     0
  0
CLASS
  1
VISUALSTYLE
  2
AcDbVisualStyle
  3
ObjectDBX Classes
 90
     4095
280
     0
281
     0
  0
CLASS
  1
MATERIAL
  2
AcDbMaterial
  3
ObjectDBX Classes
 90
     1153
280
     0
281
     0
  0
CLASS
  1
ACDBPLACEHOLDER
  2
AcDbPlaceHolder
  3
ObjectDBX Classes
 90
        0
280
     0
281
     0
  0
CLASS
  1
LAYOUT
  2
AcDbLayout
  3
ObjectDBX Classes
 90
        0
280
     0
281
     0
  0
ENDSEC
  0
SECTION
  2
TABLES
  0
TABLE
  2
VPORT
  5
8
330
0
100
AcDbSymbolTable
 70
     1
  0
VPORT
  5
29
330
8
100
AcDbSymbolTableRecord
100
AcDbViewportTableRecord
  2
*Active
 70
     0
 10
0.0
 20
0.0
 11
1.0
 21
1.0
 12
500.0
 22
500.0
 13
0.0
 23
0.0
 14
10.0
 24
10.0
 15
10.0
 25
10.0
 16
0.0
 26
0.0
 36
1.0
 17
0.0
 27
0.0
 37
0.0
 40
1000.0
 41
1.0
 42
50.0
 43
0.0
 44
0.0
 50
0.0
 51
0.0
 71
     0
 72
  2000
 73
     1
 74
     3
 75
     0
 76
     0
 77
     0
 78
     0
281
     0
 65
     1
110
0.0
120
0.0
130
0.0
111
1.0
121
0.0
131
0.0
112
0.0
122
1.0
132
0.0
 79
     0
146
0.0
  0
ENDTAB
  0
TABLE
  2
LTYPE
  5
5
330
0
100
AcDbSymbolTable
 70
     6
  0
LTYPE
  5
14
330
5
100
AcDbSymbolTableRecord
100
AcDbLinetypeTableRecord
  2
ByBlock
 70
     0
  3

 72
    65
 73
     0
 40
0.0
  0
LTYPE
  5
15
330
5
100
AcDbSymbolTableRecord
100
AcDbLinetypeTableRecord
  2
ByLayer
 70
     0
  3

 72
    65
 73
     0
 40
0.0
  0
LTYPE
  5
16
330
5
100
AcDbSymbolTableRecord
100
AcDbLinetypeTableRecord
  2
Continuous
 70
     0
  3
Solid line
 72
    65
 73
     0
 40
0.0
  0
LTYPE
  5
3F
330
5
100
AcDbSymbolTableRecord
100
AcDbLinetypeTableRecord
  2
HIDDEN
 70
     0
  3
Hidden __ __ __ __ __ __ __ __ __ __ __ __ __ __
 72
    65
 73
     2
 40
1.905
 49
1.27
 74
     0
 49
-0.635
 74
     0
  0
LTYPE
  5
40
330
5
100
AcDbSymbolTableRecord
100
AcDbLinetypeTableRecord
  2
PHANTOM
 70
     0
  3
Phantom ______  __  __  ______  __  __  ______
 72
    65
 73
     6
 40
12.7
 49
6.35
 74
     0
 49
-1.27
 74
     0
 49
1.27
 74
     0
 49
-1.27
 74
     0
 49
1.27
 74
     0
 49
-1.27
 74
     0
  0
LTYPE
  5
41
330
5
100
AcDbSymbolTableRecord
100
AcDbLinetypeTableRecord
  2
CENTER
 70
     0
  3
Center ____ _ ____ _ ____ _ ____ _ ____ _ ____
 72
    65
 73
     4
 40
10.16
 49
6.35
 74
     0
 49
-1.27
 74
     0
 49
1.27
 74
     0
 49
-1.27
 74
     0
  0
LTYPE
  5
42
330
5
100
AcDbSymbolTableRecord
100
AcDbLinetypeTableRecord
  2
CENTERX2
 70
     0
  3
Center (2x) ________  __  ________  __  _____
 72
    65
 73
     4
 40
20.32
 49
12.7
 74
     0
 49
-2.54
 74
     0
 49
2.54
 74
     0
 49
-2.54
 74
     0
  0
LTYPE
  5
43
330
5
100
AcDbSymbolTableRecord
100
AcDbLinetypeTableRecord
  2
DOT2
 70
     0
  3
Dot (.5x) ........................................
 72
    65
 73
     2
 40
0.635
 49
0.0
 74
     0
 49
-0.635
 74
     0
  0
ENDTAB
  0
TABLE
  2
LAYER
  5
2
330
0
100
AcDbSymbolTable
 70
     4
  0
LAYER
  5
10
330
2
100
AcDbSymbolTableRecord
100
AcDbLayerTableRecord
  2
0
 70
     0
 62
     7
  6
Continuous
370
    -3
390
F
  0
LAYER
  5
44
330
2
100
AcDbSymbolTableRecord
100
AcDbLayerTableRecord
  2
FORMAT
 70
     0
 62
     7
  6
Continuous
370
    -3
390
F
  0
LAYER
  5
45
330
2
100
AcDbSymbolTableRecord
100
AcDbLayerTableRecord
  2
SLD-0
 70
     0
 62
     1
  6
Continuous
370
    -3
390
F
  0
LAYER
  5
46
330
2
100
AcDbSymbolTableRecord
100
AcDbLayerTableRecord
  2
WATERMARK
 70
     0
 62
     1
  6
Continuous
370
    -3
390
F
  0
ENDTAB
  0
TABLE
  2
STYLE
  5
3
330
0
100
AcDbSymbolTable
 70
     1
  0
STYLE
  5
11
330
3
100
AcDbSymbolTableRecord
100
AcDbTextStyleTableRecord
  2
Standard
 70
     0
 40
0.0
 41
1.0
 50
0.0
 71
     0
 42
3.5
  3
txt
  4

  0
ENDTAB
  0
TABLE
  2
VIEW
  5
6
330
0
100
AcDbSymbolTable
 70
     0
  0
ENDTAB
  0
TABLE
  2
UCS
  5
7
330
0
100
AcDbSymbolTable
 70
     0
  0
ENDTAB
  0
TABLE
  2
APPID
  5
9
330
0
100
AcDbSymbolTable
 70
     1
  0
APPID
  5
12
330
9
100
AcDbSymbolTableRecord
100
AcDbRegAppTableRecord
  2
ACAD
 70
     0
  0
ENDTAB
  0
TABLE
  2
DIMSTYLE
  5
A
330
0
100
AcDbSymbolTable
 70
     1
100
AcDbDimStyleTable
  0
DIMSTYLE
105
27
330
A
100
AcDbSymbolTableRecord
100
AcDbDimStyleTableRecord
  2
ISO-25
 70
     0
 41
2.5
 42
0.625
 43
3.75
 44
1.25
 73
     0
 74
     0
 77
     1
 78
     8
140
2.5
141
2.5
143
0.0393700787
147
0.625
171
     3
172
     1
178
     0
271
     2
272
     2
274
     3
278
    44
283
     0
284
     8
340
11
  0
ENDTAB
  0
TABLE
  2
BLOCK_RECORD
  5
1
330
0
100
AcDbSymbolTable
 70
     1
  0
BLOCK_RECORD
  5
1F
330
1
100
AcDbSymbolTableRecord
100
AcDbBlockTableRecord
  2
*Model_Space
340
22
  0
BLOCK_RECORD
  5
1B
330
1
100
AcDbSymbolTableRecord
100
AcDbBlockTableRecord
  2
*Paper_Space
340
1E
  0
BLOCK_RECORD
  5
23
330
1
100
AcDbSymbolTableRecord
100
AcDbBlockTableRecord
  2
*Paper_Space0
340
26
  0
ENDTAB
  0
ENDSEC
  0
SECTION
  2
BLOCKS
  0
BLOCK
  5
20
330
1F
100
AcDbEntity
  8
0
100
AcDbBlockBegin
  2
*Model_Space
 70
     0
 10
0.0
 20
0.0
 30
0.0
  3
*Model_Space
  1

  0
ENDBLK
  5
21
330
1F
100
AcDbEntity
  8
0
100
AcDbBlockEnd
  0
BLOCK
  5
1C
330
1B
100
AcDbEntity
 67
     1
  8
0
100
AcDbBlockBegin
  2
*Paper_Space
 70
     0
 10
0.0
 20
0.0
 30
0.0
  3
*Paper_Space
  1

  0
ENDBLK
  5
1D
330
1B
100
AcDbEntity
 67
     1
  8
0
100
AcDbBlockEnd
  0
BLOCK
  5
24
330
23
100
AcDbEntity
  8
0
100
AcDbBlockBegin
  2
*Paper_Space0
 70
     0
 10
0.0
 20
0.0
 30
0.0
  3
*Paper_Space0
  1

  0
ENDBLK
  5
25
330
23
100
AcDbEntity
  8
0
100
AcDbBlockEnd
  0
ENDSEC
  0
SECTION
  2
ENTITIES
  0
LINE
  5
47
330
1F
100
AcDbEntity
  8
0
  6
Continuous
 62
     7
370
    15
100
AcDbLine
 10
85.6964840164
 20
760.8979310345
 30
0.0
 11
85.6964840164
 21
770.3979310345
 31
0.0
  0
LINE
  5
48
330
1F
100
AcDbEntity
  8
0
  6
Continuous
 62
     7
370
    15
100
AcDbLine
 10
66.6964840164
 20
770.3979310345
 30
0.0
 11
66.6964840164
 21
760.8979310345
 31
0.0
  0
ARC
  5
49
330
1F
100
AcDbEntity
  8
0
  6
Continuous
 62
     7
370
    15
100
AcDbCircle
 10
68.6964840164
 20
770.3979310345
 30
0.0
 40
2.000000000000014
100
AcDbArc
 50
90.0
 51
180.0
  0
ARC
  5
4A
330
1F
100
AcDbEntity
  8
0
  6
Continuous
 62
     7
370
    15
100
AcDbCircle
 10
83.6964840164
 20
770.3979310345
 30
0.0
 40
2.0
100
AcDbArc
 50
0.0
 51
90.0
  0
ARC
  5
4B
330
1F
100
AcDbEntity
  8
0
  6
Continuous
 62
     7
370
    15
100
AcDbCircle
 10
205.2375684705
 20
395.9979310345
 30
0.0
 40
2.0
100
AcDbArc
 50
270.0
 51
0.0
  0
ARC
  5
4C
330
1F
100
AcDbEntity
  8
0
  6
Continuous
 62
     7
370
    15
100
AcDbCircle
 10
152.2375684705
 20
395.9979310345
 30
0.0
 40
2.000000000000028
100
AcDbArc
 50
180.0
 51
270.0
  0
LINE
  5
4D
330
1F
100
AcDbEntity
  8
0
  6
Continuous
 62
     7
370
    15
100
AcDbLine
 10
207.2375684705
 20
395.9979310345
 30
0.0
 11
207.2375684705
 21
399.9979310345
 31
0.0
  0
LINE
  5
4E
330
1F
100
AcDbEntity
  8
0
  6
Continuous
 62
     7
370
    15
100
AcDbLine
 10
150.2375684705
 20
399.9979310345
 30
0.0
 11
150.2375684705
 21
395.9979310345
 31
0.0
  0
ARC
  5
4F
330
1F
100
AcDbEntity
  8
0
  6
Continuous
 62
     7
370
    15
100
AcDbCircle
 10
784.2375684705
 20
395.9979310345
 30
0.0
 40
2.0
100
AcDbArc
 50
270.0
 51
0.0
  0
ARC
  5
50
330
1F
100
AcDbEntity
  8
0
  6
Continuous
 62
     7
370
    15
100
AcDbCircle
 10
731.2375684705
 20
395.9979310345
 30
0.0
 40
2.0
100
AcDbArc
 50
180.0
 51
270.0
  0
LINE
  5
51
330
1F
100
AcDbEntity
  8
0
  6
Continuous
 62
     7
370
    15
100
AcDbLine
 10
786.2375684705
 20
395.9979310345
 30
0.0
 11
786.2375684705
 21
399.9979310345
 31
0.0
  0
LINE
  5
52
330
1F
100
AcDbEntity
  8
0
  6
Continuous
 62
     7
370
    15
100
AcDbLine
 10
729.2375684705
 20
399.9979310345
 30
0.0
 11
729.2375684705
 21
395.9979310345
 31
0.0
  0
LINE
  5
53
330
1F
100
AcDbEntity
  8
0
  6
Continuous
 62
     7
370
    15
100
AcDbLine
 10
786.0375684705
 20
399.9979310345
 30
0.0
 11
786.0375684705
 21
428.9979310345
 31
0.0
  0
LINE
  5
54
330
1F
100
AcDbEntity
  8
0
  6
Continuous
 62
     7
370
    15
100
AcDbLine
 10
729.4375684705
 20
428.9979310345
 30
0.0
 11
729.4375684705
 21
399.9979310345
 31
0.0
  0
LINE
  5
55
330
1F
100
AcDbEntity
  8
0
  6
Continuous
 62
     7
370
    15
100
AcDbLine
 10
207.0375684705
 20
399.9979310345
 30
0.0
 11
207.0375684705
 21
428.9979310345
 31
0.0
  0
LINE
  5
56
330
1F
100
AcDbEntity
  8
0
  6
Continuous
 62
     7
370
    15
100
AcDbLine
 10
150.4375684705
 20
428.9979310345
 30
0.0
 11
150.4375684705
 21
399.9979310345
 31
0.0
  0
ARC
  5
57
330
1F
100
AcDbEntity
  8
0
  6
Continuous
 62
     7
370
    15
100
AcDbCircle
 10
791.1375684705
 20
490.4979310345
 30
0.0
 40
1.5
100
AcDbArc
 50
90.0
 51
180.0
  0
ARC
  5
58
330
1F
100
AcDbEntity
  8
0
  6
Continuous
 62
     7
370
    15
100
AcDbCircle
 10
724.3375684705
 20
490.4979310345
 30
0.0
 40
1.5
100
AcDbArc
 50
0.0
 51
90.0
  0
ARC
  5
59
330
1F
100
AcDbEntity
  8
0
  6
Continuous
 62
     7
370
    15
100
AcDbCircle
 10
784.9375684705
 20
435.0304969802
 30
0.0
 40
4.700000000000122
100
AcDbArc
 50
350.5402980318
 51
0.0
  0
ARC
  5
5A
330
1F
100
AcDbEntity
  8
0
  6
Continuous
 62
     7
370
    15
100
AcDbCircle
 10
730.5375684705
 20
435.0304969802
 30
0.0
 40
4.699999999999932
100
AcDbArc
 50
180.0
 51
189.4597019682
  0
LINE
  5
5B
330
1F
100
AcDbEntity
  8
0
  6
Continuous
 62
     7
370
    15
100
AcDbLine
 10
789.6375684705
 20
435.0304969802
 30
0.0
 11
789.6375684705
 21
490.4979310345
 31
0.0
  0
LINE
  5
5C
330
1F
100
AcDbEntity
  8
0
  6
Continuous
 62
     7
370
    15
100
AcDbLine
 10
725.8375684705
 20
490.4979310345
 30
0.0
 11
725.8375684705
 21
435.0304969802
 31
0.0
  0
LINE
  5
5D
330
1F
100
AcDbEntity
  8
0
  6
Continuous
 62
     7
370
    15
100
AcDbLine
 10
725.9014816975
 20
434.2580337557
 30
0.0
 11
726.7779182501
 21
428.9979310345
 31
0.0
  0
LINE
  5
5E
330
1F
100
AcDbEntity
  8
0
  6
Continuous
 62
     7
370
    15
100
AcDbLine
 10
788.6972186908
 20
428.9979310345
 30
0.0
 11
789.5736552435
 21
434.2580337557
 31
0.0
  0
ARC
  5
5F
330
1F
100
AcDbEntity
  8
0
  6
Continuous
 62
     7
370
    15
100
AcDbCircle
 10
212.1375684705
 20
490.4979310345
 30
0.0
 40
1.5
100
AcDbArc
 50
90.0
 51
180.0
  0
ARC
  5
60
330
1F
100
AcDbEntity
  8
0
  6
Continuous
 62
     7
370
    15
100
AcDbCircle
 10
145.3375684705
 20
490.4979310345
 30
0.0
 40
1.5
100
AcDbArc
 50
0.0
 51
90.0
  0
ARC
  5
61
330
1F
100
AcDbEntity
  8
0
  6
Continuous
 62
     7
370
    15
100
AcDbCircle
 10
205.9375684705
 20
435.0304969802
 30
0.0
 40
4.699999999999989
100
AcDbArc
 50
350.5402980318
 51
0.0
  0
ARC
  5
62
330
1F
100
AcDbEntity
  8
0
  6
Continuous
 62
     7
370
    15
100
AcDbCircle
 10
151.5375684705
 20
435.0304969802
 30
0.0
 40
4.70000000000001
100
AcDbArc
 50
180.0
 51
189.4597019682
  0
LINE
  5
63
330
1F
100
AcDbEntity
  8
0
  6
Continuous
 62
     7
370
    15
100
AcDbLine
 10
210.6375684705
 20
435.0304969802
 30
0.0
 11
210.6375684705
 21
490.4979310345
 31
0.0
  0
LINE
  5
64
330
1F
100
AcDbEntity
  8
0
  6
Continuous
 62
     7
370
    15
100
AcDbLine
 10
146.8375684705
 20
490.4979310345
 30
0.0
 11
146.8375684705
 21
435.0304969802
 31
0.0
  0
LINE
  5
65
330
1F
100
AcDbEntity
  8
0
  6
Continuous
 62
     7
370
    15
100
AcDbLine
 10
146.9014816975
 20
434.2580337557
 30
0.0
 11
147.7779182501
 21
428.9979310345
 31
0.0
  0
LINE
  5
66
330
1F
100
AcDbEntity
  8
0
  6
Continuous
 62
     7
370
    15
100
AcDbLine
 10
209.6972186908
 20
428.9979310345
 30
0.0
 11
210.5736552435
 21
434.2580337557
 31
0.0
  0
ARC
  5
67
330
1F
100
AcDbEntity
  8
0
  6
Continuous
 62
     7
370
    15
100
AcDbCircle
 10
73.7875684705
 20
481.4479310345
 30
0.0
 40
0.2500000000000022
100
AcDbArc
 50
180.0
 51
209.4734267879
  0
LINE
  5
68
330
1F
100
AcDbEntity
  8
0
  6
Continuous
 62
     7
370
    15
100
AcDbLine
 10
73.5375684705
 20
482.1479310345
 30
0.0
 11
73.5375684705
 21
481.4479310345
 31
0.0
  0
SPLINE
  5
69
330
1F
100
AcDbEntity
  8
0
  6
Continuous
 62
     7
370
    15
100
AcDbSpline
210
0.0
220
0.0
230
1.0
 70
     8
 71
     3
 72
    13
 73
     9
 74
     0
 42
0.00000001
 43
0.00000001
 12
1.0
 22
0.0
 32
0.0
 13
1.0
 23
0.0
 33
0.0
 40
0.0
 40
0.0
 40
0.0
 40
0.0
 40
0.0546880530910474
 40
0.2134688124181903
 40
0.3745771152282777
 40
0.5445034158399189
 40
0.7475374221075229
 40
0.9999999999999999
 40
0.9999999999999999
 40
0.9999999999999999
 40
0.9999999999999999
 10
86.19184338134572
 20
482.6478389693955
 30
0.0
 10
86.19233733923265
 20
482.6382552419797
 30
0.0
 10
86.194265449625
 20
482.6008462139681
 30
0.0
 10
86.18023110150696
 20
482.5370004812997
 30
0.0
 10
86.15259035720918
 20
482.4696094623208
 30
0.0
 10
86.11568438163597
 20
482.4220134466144
 30
0.0
 10
86.08090747888653
 20
482.3991389541374
 30
0.0
 10
86.06907730639935
 20
482.398685014099
 30
0.0
 10
86.06252033989969
 20
482.3984334142489
 30
0.0
  0
LINE
  5
6A
330
1F
100
AcDbEntity
  8
0
  6
Continuous
 62
     7
370
    15
100
AcDbLine
 10
86.1937182201
 20
487.7479310345
 30
0.0
 11
86.1937182201
 21
482.6479310345
 31
0.0
  0
ARC
  5
6B
330
1F
100
AcDbEntity
  8
0
  6
Continuous
 62
     7
370
    15
100
AcDbCircle
 10
86.4437182201
 20
487.7479310345
 30
0.0
 40
0.25
100
AcDbArc
 50
90.0
 51
180.0
  0
ARC
  5
6C
330
1F
100
AcDbEntity
  8
0
  6
Continuous
 62
     7
370
    15
100
AcDbCircle
 10
91.1436886194
 20
487.7479310345
 30
0.0
 40
0.2500000000000284
100
AcDbArc
 50
0.0
 51
90.0
  0
LINE
  5
6D
330
1F
100
AcDbEntity
  8
0
  6
Continuous
 62
     7
370
    15
100
AcDbLine
 10
91.3936886194
 20
482.6479310345
 30
0.0
 11
91.3936886194
 21
487.7479310345
 31
0.0
  0
ARC
  5
6E
330
1F
100
AcDbEntity
  8
0
  6
Continuous
 62
     7
370
    15
100
AcDbCircle
 10
90.6875684705
 20
481.4479310345
 30
0.0
 40
0.2499999999999716
100
AcDbArc
 50
270.0
 51
0.0
  0
LINE
  5
6F
330
1F
100
AcDbEntity
  8
0
  6
Continuous
 62
     7
370
    15
100
AcDbLine
 10
73.0814483215
 20
487.7479310345
 30
0.0
 11
73.0814483215
 21
482.6479310345
 31
0.0
  0
ARC
  5
70
330
1F
100
AcDbEntity
  8
0
  6
Continuous
 62
     7
370
    15
100
AcDbCircle
 10
73.3314483215
 20
487.7479310345
 30
0.0
 40
0.25
100
AcDbArc
 50
90.0
 51
180.0
  0
SPLINE
  5
71
330
1F
100
AcDbEntity
  8
0
  6
Continuous
 62
     7
370
    15
100
AcDbSpline
210
0.0
220
0.0
230
1.0
 70
     8
 71
     3
 72
    13
 73
     9
 74
     0
 42
0.00000001
 43
0.00000001
 12
1.0
 22
0.0
 32
0.0
 13
1.0
 23
0.0
 33
0.0
 40
0.0
 40
0.0
 40
0.0
 40
0.0
 40
0.0634888169693913
 40
0.2470479163437559
 40
0.431128403062883
 40
0.6187780680158763
 40
0.8315552681841134
 40
1.0
 40
1.0
 40
1.0
 40
1.0
 10
79.1284119091799
 20
482.1480399247997
 30
0.0
 10
79.12793957734753
 20
482.1582659869531
 30
0.0
 10
79.12610163799738
 20
482.1980576773325
 30
0.0
 10
79.13944665493806
 20
482.2656171208225
 30
0.0
 10
79.16539460004701
 20
482.3357166343955
 30
0.0
 10
79.19736271371059
 20
482.3821847977833
 30
0.0
 10
79.22037799786702
 20
482.398211423319
 30
0.0
 10
79.21963550709654
 20
482.3975108454702
 30
0.0
 10
79.21930743400252
 20
482.397201291801
 30
0.0
  0
ARC
  5
72
330
1F
100
AcDbEntity
  8
0
  6
Continuous
 62
     7
370
    15
100
AcDbCircle
 10
78.8766166468
 20
477.0479310345
 30
0.0
 40
0.25
100
AcDbArc
 50
270.0
 51
0.0
  0
LINE
  5
73
330
1F
100
AcDbEntity
  8
0
  6
Continuous
 62
     7
370
    15
100
AcDbLine
 10
79.1266166468
 20
477.0479310345
 30
0.0
 11
79.1266166468
 21
482.1479310345
 31
0.0
  0
ARC
  5
74
330
1F
100
AcDbEntity
  8
0
  6
Continuous
 62
     7
370
    15
100
AcDbCircle
 10
73.8199224746
 20
477.0479310345
 30
0.0
 40
0.25
100
AcDbArc
 50
180.0
 51
270.0
  0
LINE
  5
75
330
1F
100
AcDbEntity
  8
0
  6
Continuous
 62
     7
370
    15
100
AcDbLine
 10
73.5699224746
 20
482.1479310345
 30
0.0
 11
73.5699224746
 21
477.0479310345
 31
0.0
  0
ARC
  5
76
330
1F
100
AcDbEntity
  8
0
  6
Continuous
 62
     7
370
    15
100
AcDbCircle
 10
73.7875684705
 20
482.6479310345
 30
0.0
 40
0.2500000000000213
100
AcDbArc
 50
180.0
 51
232.7089330724
  0
ARC
  5
77
330
1F
100
AcDbEntity
  8
0
  6
Continuous
 62
     7
370
    15
100
AcDbCircle
 10
73.7875684705
 20
483.3479310345
 30
0.0
 40
0.2499999999999716
100
AcDbArc
 50
90.0
 51
180.0
  0
LINE
  5
78
330
1F
100
AcDbEntity
  8
0
  6
Continuous
 62
     7
370
    15
100
AcDbLine
 10
73.5375684705
 20
483.3479310345
 30
0.0
 11
73.5375684705
 21
482.6479310345
 31
0.0
  0
ARC
  5
79
330
1F
100
AcDbEntity
  8
0
  6
Continuous
 62
     7
370
    15
100
AcDbCircle
 10
90.6552144663
 20
477.0479310345
 30
0.0
 40
0.25
100
AcDbArc
 50
270.0
 51
0.0
  0
LINE
  5
7A
330
1F
100
AcDbEntity
  8
0
  6
Continuous
 62
     7
370
    15
100
AcDbLine
 10
90.9052144663
 20
477.0479310345
 30
0.0
 11
90.9052144663
 21
481.3249260733
 31
0.0
  0
LINE
  5
7B
330
1F
100
AcDbEntity
  8
0
  6
Continuous
 62
     7
370
    15
100
AcDbLine
 10
87.484949524
 20
488.6551055167
 30
0.0
 11
87.2375684705
 21
488.7979310345
 31
0.0
  0
LINE
  5
7C
330
1F
100
AcDbEntity
  8
0
  6
Continuous
 62
     7
370
    15
100
AcDbLine
 10
76.990187417
 20
483.7407565523
 30
0.0
 11
77.2375684705
 21
483.5979310345
 31
0.0
  0
LINE
  5
7D
330
1F
100
AcDbEntity
  8
0
  6
Continuous
 62
     7
370
    15
100
AcDbLine
 10
77.2375684705
 20
488.7979310345
 30
0.0
 11
76.990187417
 21
488.6551055167
 31
0.0
  0
LINE
  5
7E
330
1F
100
AcDbEntity
  8
0
  6
Continuous
 62
     7
370
    15
100
AcDbLine
 10
76.7758770666
 20
476.2644886908
 30
0.0
 11
77.2375684705
 21
475.9979310345
 31
0.0
  0
LINE
  5
7F
330
1F
100
AcDbEntity
  8
0
  6
Continuous
 62
     7
370
    15
100
AcDbLine
 10
87.2375684705
 20
475.9979310345
 30
0.0
 11
87.6992598743
 21
476.2644886908
 31
0.0
  0
LINE
  5
80
330
1F
100
AcDbEntity
  8
0
  6
Continuous
 62
     7
370
    15
100
AcDbLine
 10
87.6992598743
 20
480.9313733782
 30
0.0
 11
87.2375684705
 21
481.1979310345
 31
0.0
  0
LINE
  5
81
330
1F
100
AcDbEntity
  8
0
  6
Continuous
 62
     7
370
    15
100
AcDbLine
 10
77.1483173207
 20
489.0994602098
 30
0.0
 11
77.2375684705
 21
489.0479310345
 31
0.0
  0
LINE
  5
82
330
1F
100
AcDbEntity
  8
0
  6
Continuous
 62
     7
370
    15
100
AcDbLine
 10
87.2375684705
 20
489.0479310345
 30
0.0
 11
87.3268196203
 21
489.0994602098
 31
0.0
  0
LINE
  5
83
330
1F
100
AcDbEntity
  8
0
  6
Continuous
 62
     7
370
    15
100
AcDbLine
 10
79.2375684705
 20
489.0479310345
 30
0.0
 11
79.2375684705
 21
488.7979310345
 31
0.0
  0
LINE
  5
84
330
1F
100
AcDbEntity
  8
0
  6
Continuous
 62
     7
370
    15
100
AcDbLine
 10
85.2375684705
 20
488.7979310345
 30
0.0
 11
85.2375684705
 21
489.0479310345
 31
0.0
  0
ARC
  5
85
330
1F
100
AcDbEntity
  8
0
  6
Continuous
 62
     7
370
    15
100
AcDbCircle
 10
927.9523829787
 20
547.8979310345
 30
0.0
 40
10.80000000000001
100
AcDbArc
 50
335.0
 51
25.0
  0
ARC
  5
86
330
1F
100
AcDbEntity
  8
0
  6
Continuous
 62
     7
370
    15
100
AcDbCircle
 10
927.9523829787
 20
547.8979310345
 30
0.0
 40
10.00000000000003
100
AcDbArc
 50
335.0
 51
25.0
  0
LINE
  5
87
330
1F
100
AcDbEntity
  8
0
  6
Continuous
 62
     7
370
    15
100
AcDbLine
 10
896.3745023956
 20
681.3973184916
 30
0.0
 11
896.712597005
 21
680.6722722619
 31
0.0
  0
LINE
  5
88
330
1F
100
AcDbEntity
  8
0
  6
Continuous
 62
     7
370
    15
100
AcDbLine
 10
896.712597005
 20
680.6722722619
 30
0.0
 11
894.8999814309
 21
679.8270357384
 31
0.0
  0
LINE
  5
89
330
1F
100
AcDbEntity
  8
0
  6
Continuous
 62
     7
370
    15
100
AcDbLine
 10
894.5618868215
 20
680.5520819681
 30
0.0
 11
896.3745023956
 21
681.3973184916
 31
0.0
  0
LINE
  5
8A
330
1F
100
AcDbEntity
  8
0
  6
Continuous
 62
     7
370
    15
100
AcDbLine
 10
937.015460849
 20
552.1241136519
 30
0.0
 11
881.1085912229
 21
672.0167824691
 31
0.0
  0
LINE
  5
8B
330
1F
100
AcDbEntity
  8
0
  6
Continuous
 62
     7
370
    15
100
AcDbLine
 10
937.7405070787
 20
552.4622082613
 30
0.0
 11
881.8336374525
 21
672.3548770785
 31
0.0
  0
LINE
  5
8C
330
1F
100
AcDbEntity
  8
0
  6
Continuous
 62
     7
370
    15
100
AcDbLine
 10
848.7122870963
 20
492.8979310345
 30
0.0
 11
907.3415844882
 21
492.8979310345
 31
0.0
  0
LINE
  5
8D
330
1F
100
AcDbEntity
  8
0
  6
Continuous
 62
     7
370
    15
100
AcDbLine
 10
848.7122870963
 20
493.6979310345
 30
0.0
 11
907.3415844882
 21
493.6979310345
 31
0.0
  0
ARC
  5
8E
330
1F
100
AcDbEntity
  8
0
  6
Continuous
 62
     7
370
    15
100
AcDbCircle
 10
907.3415844882
 20
503.6979310345
 30
0.0
 40
9.999999999999943
100
AcDbArc
 50
270.0
 51
335.0
  0
ARC
  5
8F
330
1F
100
AcDbEntity
  8
0
  6
Continuous
 62
     7
370
    15
100
AcDbCircle
 10
907.3415844882
 20
503.6979310345
 30
0.0
 40
10.79999999999995
100
AcDbArc
 50
270.0
 51
335.0
  0
ARC
  5
90
330
1F
100
AcDbEntity
  8
0
  6
Continuous
 62
     7
370
    15
100
AcDbCircle
 10
882.9665221863
 20
672.8831499057
 30
0.0
 40
2.050000000000057
100
AcDbArc
 50
115.0
 51
205.0
  0
ARC
  5
91
330
1F
100
AcDbEntity
  8
0
  6
Continuous
 62
     7
370
    15
100
AcDbCircle
 10
882.9665221863
 20
672.8831499057
 30
0.0
 40
1.25000000000008
100
AcDbArc
 50
115.0
 51
205.0
  0
LINE
  5
92
330
1F
100
AcDbEntity
  8
0
  6
Continuous
 62
     7
370
    15
100
AcDbLine
 10
916.4046623586
 20
499.4717484171
 30
0.0
 11
937.015460849
 21
543.6717484171
 31
0.0
  0
LINE
  5
93
330
1F
100
AcDbEntity
  8
0
  6
Continuous
 62
     7
370
    15
100
AcDbLine
 10
917.1297085882
 20
499.1336538077
 30
0.0
 11
937.7405070787
 21
543.3336538077
 31
0.0
  0
LINE
  5
94
330
1F
100
AcDbEntity
  8
0
  6
Continuous
 62
     7
370
    15
100
AcDbLine
 10
882.4382493592
 20
674.0160346395
 30
0.0
 11
894.8999814309
 21
679.8270357384
 31
0.0
  0
LINE
  5
95
330
1F
100
AcDbEntity
  8
0
  6
Continuous
 62
     7
370
    15
100
AcDbLine
 10
882.1001547498
 20
674.7410808691
 30
0.0
 11
894.5618868215
 21
680.5520819681
 31
0.0
  0
LINE
  5
96
330
1F
100
AcDbEntity
  8
0
  6
Continuous
 62
     7
370
    15
100
AcDbLine
 10
846.7122870963
 20
492.8979310345
 30
0.0
 11
846.7122870963
 21
493.6979310345
 31
0.0
  0
LINE
  5
97
330
1F
100
AcDbEntity
  8
0
  6
Continuous
 62
     7
370
    15
100
AcDbLine
 10
846.7122870963
 20
493.6979310345
 30
0.0
 11
848.7122870963
 21
493.6979310345
 31
0.0
  0
LINE
  5
98
330
1F
100
AcDbEntity
  8
0
  6
Continuous
 62
     7
370
    15
100
AcDbLine
 10
848.7122870963
 20
492.8979310345
 30
0.0
 11
846.7122870963
 21
492.8979310345
 31
0.0
  0
LINE
  5
99
330
1F
100
AcDbEntity
  8
0
  6
Continuous
 62
     7
370
    15
100
AcDbLine
 10
880.9656735055
 20
673.3293612417
 30
0.0
 11
880.5803183957
 21
673.1496672029
 31
0.0
  0
LINE
  5
9A
330
1F
100
AcDbEntity
  8
0
  6
Continuous
 62
     7
370
    15
100
AcDbLine
 10
880.5803183957
 20
673.1496672029
 30
0.0
 11
880.6145221443
 21
673.0763170275
 31
0.0
  0
LINE
  5
9B
330
1F
100
AcDbEntity
  8
0
  6
Continuous
 62
     7
370
    15
100
AcDbLine
 10
905.7122870963
 20
492.6979310345
 30
0.0
 11
905.7122870963
 21
492.8979310345
 31
0.0
  0
LINE
  5
9C
330
1F
100
AcDbEntity
  8
0
  6
Continuous
 62
     7
370
    15
100
AcDbLine
 10
904.7122870963
 20
492.6979310345
 30
0.0
 11
905.7122870963
 21
492.6979310345
 31
0.0
  0
LINE
  5
9D
330
1F
100
AcDbEntity
  8
0
  6
Continuous
 62
     7
370
    15
100
AcDbLine
 10
851.7122870963
 20
492.6979310345
 30
0.0
 11
851.7122870963
 21
492.8979310345
 31
0.0
  0
LINE
  5
9E
330
1F
100
AcDbEntity
  8
0
  6
Continuous
 62
     7
370
    15
100
AcDbLine
 10
851.7122870963
 20
492.6979310345
 30
0.0
 11
852.7122870963
 21
492.6979310345
 31
0.0
  0
LINE
  5
9F
330
1F
100
AcDbEntity
  8
0
  6
Continuous
 62
     7
370
    15
100
AcDbLine
 10
852.7122870963
 20
492.6979310345
 30
0.0
 11
904.7122870963
 21
492.6979310345
 31
0.0
  0
LINE
  5
A0
330
1F
100
AcDbEntity
  8
0
  6
Continuous
 62
     7
370
    15
100
AcDbLine
 10
935.159901094
 20
561.7822581875
 30
0.0
 11
911.4883596712
 21
612.5460425879
 31
0.0
  0
LINE
  5
A1
330
1F
100
AcDbEntity
  8
0
  6
Continuous
 62
     7
370
    15
100
AcDbLine
 10
909.1954066992
 20
613.6773735718
 30
0.0
 11
910.6454991584
 21
614.3535627905
 31
0.0
  0
SPLINE
  5
A2
330
1F
100
AcDbEntity
  8
0
  6
Continuous
 62
     7
370
    15
100
AcDbSpline
210
0.0
220
0.0
230
1.0
 70
    24
 71
     3
 72
    11
 73
     7
 74
     0
 42
0.00000001
 43
0.00000001
 12
1.0
 22
0.0
 32
0.0
 13
1.0
 23
0.0
 33
0.0
 40
0.0
 40
0.0
 40
0.0
 40
0.0
 40
0.2833534124411256
 40
0.5581116990962659
 40
0.7754835424211767
 40
1.0
 40
1.0
 40
1.0
 40
1.0
 10
911.4883596712145
 20
612.5460425878583
 30
0.0
 10
911.3628215188772
 20
612.8152600243336
 30
0.0
 10
911.1155532368447
 20
613.345528566375
 30
0.0
 10
910.8416502122578
 20
613.9329154981497
 30
0.0
 10
910.6751785959269
 20
614.2899150314398
 30
0.0
 10
910.6554983699979
 20
614.3321194121419
 30
0.0
 10
910.6454991584304
 20
614.353562790548
 30
0.0
  0
LINE
  5
A3
330
1F
100
AcDbEntity
  8
0
  6
Continuous
 62
     7
370
    15
100
AcDbLine
 10
934.5525024036
 20
559.2989063496
 30
0.0
 11
936.0025948629
 21
559.9750955683
 31
0.0
  0
SPLINE
  5
A4
330
1F
100
AcDbEntity
  8
0
  6
Continuous
 62
     7
370
    15
100
AcDbSpline
210
0.0
220
0.0
230
1.0
 70
    24
 71
     3
 72
    11
 73
     7
 74
     0
 42
0.00000001
 43
0.00000001
 12
1.0
 22
0.0
 32
0.0
 13
1.0
 23
0.0
 33
0.0
 40
0.0
 40
0.0
 40
0.0
 40
0.0
 40
0.2832771686238265
 40
0.5580022489005166
 40
0.7754022428539269
 40
1.0
 40
1.0
 40
1.0
 40
1.0
 10
936.0025948628729
 20
559.9750955683494
 30
0.0
 10
935.9864154162656
 20
560.0097925035689
 30
0.0
 10
935.954544977724
 20
560.078138879581
 30
0.0
 10
935.7293153650336
 20
560.5611453426992
 30
0.0
 10
935.4544341230766
 20
561.1506300683941
 30
0.0
 10
935.2591388730413
 20
561.5694420836377
 30
0.0
 10
935.1599010940477
 20
561.7822581874653
 30
0.0
  0
LINE
  5
A5
330
1F
100
AcDbEntity
  8
0
  6
Continuous
 62
     7
370
    15
100
AcDbLine
 10
912.9868149771
 20
612.6452770307
 30
0.0
 11
936.1989408479
 21
562.8667124611
 31
0.0
  0
SPLINE
  5
A6
330
1F
100
AcDbEntity
  8
0
  6
Continuous
 62
     7
370
    15
100
AcDbSpline
210
0.0
220
0.0
230
1.0
 70
     8
 71
     3
 72
    11
 73
     7
 74
     0
 42
0.00000001
 43
0.00000001
 12
1.0
 22
0.0
 32
0.0
 13
1.0
 23
0.0
 33
0.0
 40
0.0
 40
0.0
 40
0.0
 40
0.0
 40
0.2371941589275892
 40
0.4978619749471103
 40
0.7485798819786932
 40
1.0
 40
1.0
 40
1.0
 40
1.0
 10
910.6454991584304
 20
614.353562790548
 30
0.0
 10
910.8826103325284
 20
614.3064364256294
 30
0.0
 10
911.3802981253145
 20
614.207519887311
 30
0.0
 10
912.045797895939
 20
613.8300335697836
 30
0.0
 10
912.6176893764673
 20
613.3070051954423
 30
0.0
 10
912.8636584523817
 20
612.866058631717
 30
0.0
 10
912.9868149771031
 20
612.6452770307196
 30
0.0
  0
SPLINE
  5
A7
330
1F
100
AcDbEntity
  8
0
  6
Continuous
 62
     7
370
    15
100
AcDbSpline
210
0.0
220
0.0
230
1.0
 70
    24
 71
     3
 72
    13
 73
     9
 74
     0
 42
0.00000001
 43
0.00000001
 12
1.0
 22
0.0
 32
0.0
 13
1.0
 23
0.0
 33
0.0
 40
0.0
 40
0.0
 40
0.0
 40
0.0
 40
0.1275360740474376
 40
0.2545887198592404
 40
0.4999418984797879
 40
0.745329982864972
 40
0.8725055605771143
 40
1.0
 40
1.0
 40
1.0
 40
1.0
 10
910.6454991584304
 20
614.353562790548
 30
0.0
 10
910.6485704284029
 20
614.3469764308373
 30
0.0
 10
910.654701326633
 20
614.3338286771542
 30
0.0
 10
910.7225278068953
 20
614.1883743208376
 30
0.0
 10
910.8771128633734
 20
613.8568655974127
 30
0.0
 10
911.1085280539214
 20
613.3605941197721
 30
0.0
 10
911.3197725174088
 20
612.9075789059038
 30
0.0
 10
911.4321170659707
 20
612.666655244031
 30
0.0
 10
911.4883596712145
 20
612.5460425878583
 30
0.0
  0
SPLINE
  5
A8
330
1F
100
AcDbEntity
  8
0
  6
Continuous
 62
     7
370
    15
100
AcDbSpline
210
0.0
220
0.0
230
1.0
 70
     8
 71
     3
 72
    11
 73
     7
 74
     0
 42
0.00000001
 43
0.00000001
 12
1.0
 22
0.0
 32
0.0
 13
1.0
 23
0.0
 33
0.0
 40
0.0
 40
0.0
 40
0.0
 40
0.0
 40
0.2514201137491448
 40
0.5021380165204832
 40
0.7627995894819173
 40
1.0
 40
1.0
 40
1.0
 40
1.0
 10
936.1989408479028
 20
562.8667124610519
 30
0.0
 10
936.2889058853325
 20
562.6304534190864
 30
0.0
 10
936.4685846897747
 20
562.1585952015852
 30
0.0
 10
936.5016425356016
 20
561.3843109788771
 30
0.0
 10
936.3630413127564
 20
560.6318653478771
 30
0.0
 10
936.1189088609502
 20
560.1870314020854
 30
0.0
 10
936.0025948628729
 20
559.9750955683494
 30
0.0
  0
SPLINE
  5
A9
330
1F
100
AcDbEntity
  8
0
  6
Continuous
 62
     7
370
    15
100
AcDbSpline
210
0.0
220
0.0
230
1.0
 70
    24
 71
     3
 72
    13
 73
     9
 74
     0
 42
0.00000001
 43
0.00000001
 12
1.0
 22
0.0
 32
0.0
 13
1.0
 23
0.0
 33
0.0
 40
0.0
 40
0.0
 40
0.0
 40
0.0
 40
0.1275872441294441
 40
0.2546759233236616
 40
0.5000487292309087
 40
0.7453982611490022
 40
0.8725397565424667
 40
0.9999999999999999
 40
0.9999999999999999
 40
0.9999999999999999
 40
0.9999999999999999
 10
935.1599010940477
 20
561.7822581874653
 30
0.0
 10
935.2161818025047
 20
561.6615638186881
 30
0.0
 10
935.3285232947077
 20
561.4206467111981
 30
0.0
 10
935.5397241647848
 20
560.9677249837005
 30
0.0
 10
935.7710668276917
 20
560.4716090420873
 30
0.0
 10
935.9256406301871
 20
560.1401244529064
 30
0.0
 10
935.9933695757353
 20
559.9948792604598
 30
0.0
 10
935.9995172016583
 20
559.9816956341232
 30
0.0
 10
936.0025948628729
 20
559.9750955683494
 30
0.0
  0
LINE
  5
AA
330
1F
100
AcDbEntity
  8
0
  6
Continuous
 62
     7
370
    15
100
AcDbLine
 10
43.5464840164
 20
756.5979310345
 30
0.0
 11
43.5464840164
 21
758.8979310345
 31
0.0
  0
LINE
  5
AB
330
1F
100
AcDbEntity
  8
0
  6
Continuous
 62
     7
370
    15
100
AcDbLine
 10
108.8464840164
 20
758.8979310345
 30
0.0
 11
108.8464840164
 21
756.5979310345
 31
0.0
  0
LINE
  5
AC
330
1F
100
AcDbEntity
  8
0
  6
Continuous
 62
     7
370
    15
100
AcDbLine
 10
53.3464840153
 20
743.2479310345
 30
0.0
 11
42.9464840164
 21
743.2479310345
 31
0.0
  0
ARC
  5
AD
330
1F
100
AcDbEntity
  8
0
  6
Continuous
 62
     7
370
    15
100
AcDbCircle
 10
42.9464840164
 20
745.2479310345
 30
0.0
 40
2.000000000000007
100
AcDbArc
 50
180.0
 51
270.0
  0
LINE
  5
AE
330
1F
100
AcDbEntity
  8
0
  6
Continuous
 62
     7
370
    15
100
AcDbLine
 10
40.9464840164
 20
745.2479310345
 30
0.0
 11
40.9464840164
 21
756.8979310345
 31
0.0
  0
ARC
  5
AF
330
1F
100
AcDbEntity
  8
0
  6
Continuous
 62
     7
370
    15
100
AcDbCircle
 10
42.9464840164
 20
756.8979310345
 30
0.0
 40
2.000000000000007
100
AcDbArc
 50
90.0
 51
180.0
  0
LINE
  5
B0
330
1F
100
AcDbEntity
  8
0
  6
Continuous
 62
     7
370
    15
100
AcDbLine
 10
42.9464840164
 20
758.8979310345
 30
0.0
 11
42.9464840164
 21
755.9979310345
 31
0.0
  0
ARC
  5
B1
330
1F
100
AcDbEntity
  8
0
  6
Continuous
 62
     7
370
    15
100
AcDbCircle
 10
43.2464840164
 20
755.9979310345
 30
0.0
 40
0.3000000000000256
100
AcDbArc
 50
180.0
 51
0.0
  0
LINE
  5
B2
330
1F
100
AcDbEntity
  8
0
  6
Continuous
 62
     7
370
    15
100
AcDbLine
 10
43.5464840164
 20
755.9979310345
 30
0.0
 11
43.5464840164
 21
756.5979310345
 31
0.0
  0
ARC
  5
B3
330
1F
100
AcDbEntity
  8
0
  6
Continuous
 62
     7
370
    15
100
AcDbCircle
 10
109.1464840164
 20
755.9979310345
 30
0.0
 40
0.3000000000000256
100
AcDbArc
 50
180.0
 51
0.0
  0
LINE
  5
B4
330
1F
100
AcDbEntity
  8
0
  6
Continuous
 62
     7
370
    15
100
AcDbLine
 10
109.4464840164
 20
755.9979310345
 30
0.0
 11
109.4464840164
 21
758.8979310345
 31
0.0
  0
ARC
  5
B5
330
1F
100
AcDbEntity
  8
0
  6
Continuous
 62
     7
370
    15
100
AcDbCircle
 10
109.4464840164
 20
756.8979310345
 30
0.0
 40
2.0
100
AcDbArc
 50
0.0
 51
90.0
  0
LINE
  5
B6
330
1F
100
AcDbEntity
  8
0
  6
Continuous
 62
     7
370
    15
100
AcDbLine
 10
111.4464840164
 20
756.8979310345
 30
0.0
 11
111.4464840164
 21
743.4979310345
 31
0.0
  0
LINE
  5
B7
330
1F
100
AcDbEntity
  8
0
  6
Continuous
 62
     7
370
    15
100
AcDbLine
 10
53.9464840153
 20
743.4979310345
 30
0.0
 11
53.9464840153
 21
744.0979310345
 31
0.0
  0
ARC
  5
B8
330
1F
100
AcDbEntity
  8
0
  6
Continuous
 62
     7
370
    15
100
AcDbCircle
 10
53.6464840153
 20
744.0979310345
 30
0.0
 40
0.3000000000000256
100
AcDbArc
 50
0.0
 51
180.0
  0
LINE
  5
B9
330
1F
100
AcDbEntity
  8
0
  6
Continuous
 62
     7
370
    15
100
AcDbLine
 10
53.3464840153
 20
744.0979310345
 30
0.0
 11
53.3464840153
 21
743.2479310345
 31
0.0
  0
LINE
  5
BA
330
1F
100
AcDbEntity
  8
0
  6
Continuous
 62
     7
370
    15
100
AcDbLine
 10
108.8464840164
 20
756.5979310345
 30
0.0
 11
108.8464840164
 21
755.9979310345
 31
0.0
  0
LINE
  5
BB
330
1F
100
AcDbEntity
  8
0
  6
Continuous
 62
     7
370
    15
100
AcDbLine
 10
111.4464840164
 20
741.1979310345
 30
0.0
 11
53.9464840153
 21
741.1979310345
 31
0.0
  0
LINE
  5
BC
330
1F
100
AcDbEntity
  8
0
  6
Continuous
 62
     7
370
    15
100
AcDbLine
 10
53.9464840153
 20
741.1979310345
 30
0.0
 11
53.9464840153
 21
743.4979310345
 31
0.0
  0
LINE
  5
BD
330
1F
100
AcDbEntity
  8
0
  6
Continuous
 62
     7
370
    15
100
AcDbLine
 10
111.4464840164
 20
743.4979310345
 30
0.0
 11
111.4464840164
 21
741.1979310345
 31
0.0
  0
LINE
  5
BE
330
1F
100
AcDbEntity
  8
0
  6
Continuous
 62
     7
370
    15
100
AcDbLine
 10
68.6964849198
 20
772.3979310345
 30
0.0
 11
83.6964840164
 21
772.3979310345
 31
0.0
  0
LINE
  5
BF
330
1F
100
AcDbEntity
  8
0
  6
Continuous
 62
     7
370
    15
100
AcDbLine
 10
897.4327204837
 20
681.962317656
 30
0.0
 11
881.0758132553
 21
674.3349665516
 31
0.0
  0
SPLINE
  5
C0
330
1F
100
AcDbEntity
  8
0
  6
Continuous
 62
     7
370
    15
100
AcDbSpline
210
0.0
220
0.0
230
1.0
 70
     8
 71
     3
 72
    11
 73
     7
 74
     0
 42
0.00000001
 43
0.00000001
 12
1.0
 22
0.0
 32
0.0
 13
1.0
 23
0.0
 33
0.0
 40
0.0
 40
0.0
 40
0.0
 40
0.0
 40
0.2889759275645162
 40
0.5779517763250717
 40
0.8674414070450556
 40
1.0
 40
1.0
 40
1.0
 40
1.0
 10
881.0758132552523
 20
674.3349665516334
 30
0.0
 10
880.7722853456968
 20
674.2446911673184
 30
0.0
 10
880.1652296093583
 20
674.064140423306
 30
0.0
 10
879.0167116319263
 20
674.3035267879769
 30
0.0
 10
877.9821538342261
 20
674.6953070668002
 30
0.0
 10
877.355205411734
 20
674.9621530562506
 30
0.0
 10
877.1582909453795
 20
675.0459651111603
 30
0.0
  0
SPLINE
  5
C1
330
1F
100
AcDbEntity
  8
0
  6
Continuous
 62
     7
370
    15
100
AcDbSpline
210
0.0
220
0.0
230
1.0
 70
     8
 71
     3
 72
    11
 73
     7
 74
     0
 42
0.00000001
 43
0.00000001
 12
1.0
 22
0.0
 32
0.0
 13
1.0
 23
0.0
 33
0.0
 40
0.0
 40
0.0
 40
0.0
 40
0.0
 40
0.2888077077194054
 40
0.5776153362197917
 40
0.8669345414323619
 40
1.0
 40
1.0
 40
1.0
 40
1.0
 10
877.1582909453799
 20
675.0459651111606
 30
0.0
 10
877.6059889701576
 20
674.9097563563042
 30
0.0
 10
878.5013848969107
 20
674.6373388839532
 30
0.0
 10
879.6485464859716
 20
674.137329556839
 30
0.0
 10
880.3234340347026
 20
673.6010788264099
 30
0.0
 10
880.5447881191526
 20
673.2020306903579
 30
0.0
 10
880.6145221442696
 20
673.0763170275106
 30
0.0
  0
LINE
  5
C2
330
1F
100
AcDbEntity
  8
0
  6
Continuous
 62
     7
370
    15
100
AcDbLine
 10
880.6145221443
 20
673.0763170275
 30
0.0
 11
881.1085912229
 21
672.0167824691
 31
0.0
  0
SPLINE
  5
C3
330
1F
100
AcDbEntity
  8
0
  6
Continuous
 62
     7
370
    15
100
AcDbSpline
210
0.0
220
0.0
230
1.0
 70
     8
 71
     3
 72
    12
 73
     8
 74
     0
 42
0.00000001
 43
0.00000001
 12
1.0
 22
0.0
 32
0.0
 13
1.0
 23
0.0
 33
0.0
 40
0.0
 40
0.0
 40
0.0
 40
0.0
 40
0.2096821001528651
 40
0.4420453733186043
 40
0.674433296668131
 40
0.9068208701180629
 40
1.0
 40
1.0
 40
1.0
 40
1.0
 10
41.04923875098621
 20
495.9979310344835
 30
0.0
 10
40.79690779301093
 20
495.8936458265559
 30
0.0
 10
40.26495140552383
 20
495.6737949492692
 30
0.0
 10
39.54356997570863
 20
495.3378268193862
 30
0.0
 10
39.00021104172263
 20
494.9909215509695
 30
0.0
 10
38.77158920157897
 20
494.7125448887367
 30
0.0
 10
38.75421216295483
 20
494.5511844275151
 30
0.0
 10
38.74923875098618
 20
494.5050021022953
 30
0.0
  0
LINE
  5
C4
330
1F
100
AcDbEntity
  8
0
  6
Continuous
 62
     7
370
    15
100
AcDbLine
 10
38.749238751
 20
740.0908599667
 30
0.0
 11
38.749238751
 21
494.5050021023
 31
0.0
  0
SPLINE
  5
C5
330
1F
100
AcDbEntity
  8
0
  6
Continuous
 62
     7
370
    15
100
AcDbSpline
210
0.0
220
0.0
230
1.0
 70
     8
 71
     3
 72
    12
 73
     8
 74
     0
 42
0.00000001
 43
0.00000001
 12
1.0
 22
0.0
 32
0.0
 13
1.0
 23
0.0
 33
0.0
 40
0.0
 40
0.0
 40
0.0
 40
0.0
 40
0.2096821001528659
 40
0.442045373318591
 40
0.6744332966681127
 40
0.9068208701180268
 40
1.0
 40
1.0
 40
1.0
 40
1.0
 10
38.74923875098607
 20
740.090859966672
 30
0.0
 10
38.77357872115466
 20
739.9865747587445
 30
0.0
 10
38.82489149984147
 20
739.7667238814578
 30
0.0
 10
39.24582208677019
 20
739.4307557515748
 30
0.0
 10
39.89761156466565
 20
739.0838504831582
 30
0.0
 10
40.54705260376817
 20
738.8054738209253
 30
0.0
 10
40.9374925208747
 20
738.6441133597037
 30
0.0
 10
41.04923875098615
 20
738.5979310344838
 30
0.0
  0
LINE
  5
C6
330
1F
100
AcDbEntity
  8
0
  6
Continuous
 62
     7
370
    15
100
AcDbLine
 10
38.749238751
 20
740.0908599667
 30
0.0
 11
39.549238751
 21
740.0908599667
 31
0.0
  0
SPLINE
  5
C7
330
1F
100
AcDbEntity
  8
0
  6
Continuous
 62
     7
370
    15
100
AcDbSpline
210
0.0
220
0.0
230
1.0
 70
     8
 71
     3
 72
    11
 73
     7
 74
     0
 42
0.00000001
 43
0.00000001
 12
1.0
 22
0.0
 32
0.0
 13
1.0
 23
0.0
 33
0.0
 40
0.0
 40
0.0
 40
0.0
 40
0.0
 40
0.2543211584721066
 40
0.5088664984542097
 40
0.7634130007196994
 40
1.0
 40
1.0
 40
1.0
 40
1.0
 10
39.54923875098615
 20
740.090859966672
 30
0.0
 10
39.57259281300512
 20
739.9642788588866
 30
0.0
 10
39.61932152341102
 20
739.7110050633589
 30
0.0
 10
39.9782091396062
 20
739.3310603938735
 30
0.0
 10
40.47743211889571
 20
738.9598352622028
 30
0.0
 10
40.863340435491
 20
738.7155886175335
 30
0.0
 10
41.04923875098615
 20
738.5979310344838
 30
0.0
  0
SPLINE
  5
C8
330
1F
100
AcDbEntity
  8
0
  6
Continuous
 62
     7
370
    15
100
AcDbSpline
210
0.0
220
0.0
230
1.0
 70
     8
 71
     3
 72
    12
 73
     8
 74
     0
 42
0.00000001
 43
0.00000001
 12
1.0
 22
0.0
 32
0.0
 13
1.0
 23
0.0
 33
0.0
 40
0.0
 40
0.0
 40
0.0
 40
0.0
 40
0.2096821001528799
 40
0.4420453733185745
 40
0.6744332966681301
 40
0.9068208701180551
 40
0.9999999999999999
 40
0.9999999999999999
 40
0.9999999999999999
 40
0.9999999999999999
 10
41.04923875098615
 20
738.5979310344838
 30
0.0
 10
40.94495354305866
 20
738.8502619924593
 30
0.0
 10
40.72510266577195
 20
739.3822183799465
 30
0.0
 10
40.38913453588889
 20
740.1035998097612
 30
0.0
 10
40.04222926747219
 20
740.6469587437476
 30
0.0
 10
39.76385260523929
 20
740.8755805838912
 30
0.0
 10
39.60249214401773
 20
740.8929576225154
 30
0.0
 10
39.55630981879804
 20
740.8979310344839
 30
0.0
  0
LINE
  5
C9
330
1F
100
AcDbEntity
  8
0
  6
Continuous
 62
     7
370
    15
100
AcDbLine
 10
39.5563098188
 20
740.8979310345
 30
0.0
 11
42.9464840164
 21
740.8979310345
 31
0.0
  0
LINE
  5
CA
330
1F
100
AcDbEntity
  8
0
  6
Continuous
 62
     7
370
    15
100
AcDbLine
 10
53.6964840164
 20
740.8979310345
 30
0.0
 11
115.9464840164
 21
740.8979310345
 31
0.0
  0
CIRCLE
  5
CB
330
1F
100
AcDbEntity
  8
0
  6
Continuous
 62
     7
370
    15
100
AcDbCircle
 10
116.296461161
 20
720.8979310345
 30
0.0
 40
6.34766310537168
  0
CIRCLE
  5
CC
330
1F
100
AcDbEntity
  8
0
  6
Continuous
 62
     7
370
    15
100
AcDbCircle
 10
886.296461161
 20
720.8979310345
 30
0.0
 40
6.34766310537168
  0
CIRCLE
  5
CD
330
1F
100
AcDbEntity
  8
0
  6
Continuous
 62
     7
370
    15
100
AcDbCircle
 10
506.296461161
 20
720.8979310345
 30
0.0
 40
6.34766310537168
  0
SPLINE
  5
CE
330
1F
100
AcDbEntity
  8
0
  6
Continuous
 62
     7
370
    15
100
AcDbSpline
210
0.0
220
0.0
230
1.0
 70
     8
 71
     3
 72
    11
 73
     7
 74
     0
 42
0.00000001
 43
0.00000001
 12
1.0
 22
0.0
 32
0.0
 13
1.0
 23
0.0
 33
0.0
 40
0.0
 40
0.0
 40
0.0
 40
0.0
 40
0.2543211584720612
 40
0.5088664984541674
 40
0.7634130007196556
 40
1.0
 40
1.0
 40
1.0
 40
1.0
 10
41.04923875098615
 20
738.5979310344838
 30
0.0
 10
40.92265764320074
 20
738.7979062246231
 30
0.0
 10
40.6693838476731
 20
739.1980328809943
 30
0.0
 10
40.28943917818783
 20
739.6996566350897
 30
0.0
 10
39.91821404651669
 20
740.0357218819489
 30
0.0
 10
39.67396740184764
 20
740.0777064060594
 30
0.0
 10
39.55630981879804
 20
740.097931034484
 30
0.0
  0
LINE
  5
CF
330
1F
100
AcDbEntity
  8
0
  6
Continuous
 62
     7
370
    15
100
AcDbLine
 10
39.5563098188
 20
740.8979310345
 30
0.0
 11
39.5563098188
 21
740.0979310345
 31
0.0
  0
SPLINE
  5
D0
330
1F
100
AcDbEntity
  8
0
  6
Continuous
 62
     7
370
    15
100
AcDbSpline
210
0.0
220
0.0
230
1.0
 70
     8
 71
     3
 72
    11
 73
     7
 74
     0
 42
0.00000001
 43
0.00000001
 12
1.0
 22
0.0
 32
0.0
 13
1.0
 23
0.0
 33
0.0
 40
0.0
 40
0.0
 40
0.0
 40
0.0
 40
0.2543211584721397
 40
0.5088664984542343
 40
0.7634130007197366
 40
1.0
 40
1.0
 40
1.0
 40
1.0
 10
41.04923875098621
 20
495.9979310344835
 30
0.0
 10
40.84926356084684
 20
495.8713499266981
 30
0.0
 10
40.44913690447571
 20
495.6180761311704
 30
0.0
 10
39.9475131503802
 20
495.2381314616849
 30
0.0
 10
39.61144790352134
 20
494.866906330014
 30
0.0
 10
39.56946337941064
 20
494.6226596853449
 30
0.0
 10
39.54923875098621
 20
494.5050021022953
 30
0.0
  0
LINE
  5
D1
330
1F
100
AcDbEntity
  8
0
  6
Continuous
 62
     7
370
    15
100
AcDbLine
 10
38.749238751
 20
494.5050021023
 30
0.0
 11
39.549238751
 21
494.5050021023
 31
0.0
  0
LINE
  5
D2
330
1F
100
AcDbEntity
  8
0
  6
Continuous
 62
     7
370
    15
100
AcDbLine
 10
846.7122870963
 20
493.6979310345
 30
0.0
 11
39.5563098188
 21
493.6979310345
 31
0.0
  0
SPLINE
  5
D3
330
1F
100
AcDbEntity
  8
0
  6
Continuous
 62
     7
370
    15
100
AcDbSpline
210
0.0
220
0.0
230
1.0
 70
     8
 71
     3
 72
    12
 73
     8
 74
     0
 42
0.00000001
 43
0.00000001
 12
1.0
 22
0.0
 32
0.0
 13
1.0
 23
0.0
 33
0.0
 40
0.0
 40
0.0
 40
0.0
 40
0.0
 40
0.2096821001528683
 40
0.4420453733186041
 40
0.6744332966681316
 40
0.9068208701180589
 40
1.0
 40
1.0
 40
1.0
 40
1.0
 10
39.55630981879804
 20
493.6979310344835
 30
0.0
 10
39.66059502672564
 20
493.722271004652
 30
0.0
 10
39.8804459040123
 20
493.7735837833389
 30
0.0
 10
40.21641403389525
 20
494.1945143702676
 30
0.0
 10
40.56331930231211
 20
494.8463038481632
 30
0.0
 10
40.84169596454468
 20
495.4957448872657
 30
0.0
 10
41.00305642576652
 20
495.886184804372
 30
0.0
 10
41.04923875098615
 20
495.9979310344835
 30
0.0
  0
LINE
  5
D4
330
1F
100
AcDbEntity
  8
0
  6
Continuous
 62
     7
370
    15
100
AcDbLine
 10
39.5563098188
 20
493.6979310345
 30
0.0
 11
39.5563098188
 21
494.4979310345
 31
0.0
  0
SPLINE
  5
D5
330
1F
100
AcDbEntity
  8
0
  6
Continuous
 62
     7
370
    15
100
AcDbSpline
210
0.0
220
0.0
230
1.0
 70
     8
 71
     3
 72
    11
 73
     7
 74
     0
 42
0.00000001
 43
0.00000001
 12
1.0
 22
0.0
 32
0.0
 13
1.0
 23
0.0
 33
0.0
 40
0.0
 40
0.0
 40
0.0
 40
0.0
 40
0.2543211584721391
 40
0.5088664984542423
 40
0.7634130007197231
 40
1.0
 40
1.0
 40
1.0
 40
1.0
 10
39.55630981879804
 20
494.4979310344835
 30
0.0
 10
39.6828909265835
 20
494.5212850965025
 30
0.0
 10
39.9361647221112
 20
494.5680138069084
 30
0.0
 10
40.31610939159663
 20
494.9269014231036
 30
0.0
 10
40.68733452326745
 20
495.4261244023932
 30
0.0
 10
40.93158116793661
 20
495.8120327189884
 30
0.0
 10
41.04923875098615
 20
495.9979310344835
 30
0.0
  0
CIRCLE
  5
D6
330
1F
100
AcDbEntity
  8
0
  6
Continuous
 62
     7
370
    15
100
AcDbCircle
 10
506.296461161
 20
720.8979310345
 30
0.0
 40
2.700000000000045
  0
CIRCLE
  5
D7
330
1F
100
AcDbEntity
  8
0
  6
Continuous
 62
     7
370
    15
100
AcDbCircle
 10
886.296461161
 20
720.8979310345
 30
0.0
 40
2.700000000000045
  0
CIRCLE
  5
D8
330
1F
100
AcDbEntity
  8
0
  6
Continuous
 62
     7
370
    15
100
AcDbCircle
 10
116.296461161
 20
720.8979310345
 30
0.0
 40
2.700000000000045
  0
CIRCLE
  5
D9
330
1F
100
AcDbEntity
  8
0
  6
Continuous
 62
     7
370
    15
100
AcDbCircle
 10
116.296461161
 20
720.8979310345
 30
0.0
 40
2.525000000000006
  0
CIRCLE
  5
DA
330
1F
100
AcDbEntity
  8
0
  6
Continuous
 62
     7
370
    15
100
AcDbCircle
 10
116.296461161
 20
720.8979310345
 30
0.0
 40
2.099999999999994
  0
CIRCLE
  5
DB
330
1F
100
AcDbEntity
  8
0
  6
Continuous
 62
     7
370
    15
100
AcDbCircle
 10
506.296461161
 20
720.8979310345
 30
0.0
 40
2.524999999999977
  0
CIRCLE
  5
DC
330
1F
100
AcDbEntity
  8
0
  6
Continuous
 62
     7
370
    15
100
AcDbCircle
 10
506.296461161
 20
720.8979310345
 30
0.0
 40
2.10000000000008
  0
ARC
  5
DD
330
1F
100
AcDbEntity
  8
0
  6
Continuous
 62
     7
370
    15
100
AcDbCircle
 10
115.9464840164
 20
745.1479310345
 30
0.0
 40
4.25
100
AcDbArc
 50
180.0
 51
270.0
  0
ARC
  5
DE
330
1F
100
AcDbEntity
  8
0
  6
Continuous
 62
     7
370
    15
100
AcDbCircle
 10
115.9464840164
 20
745.1479310345
 30
0.0
 40
2.25
100
AcDbArc
 50
180.0
 51
270.0
  0
LINE
  5
DF
330
1F
100
AcDbEntity
  8
0
  6
Continuous
 62
     7
370
    15
100
AcDbLine
 10
40.6964840164
 20
745.1479310345
 30
0.0
 11
40.6964840164
 21
756.6479310345
 31
0.0
  0
LINE
  5
E0
330
1F
100
AcDbEntity
  8
0
  6
Continuous
 62
     7
370
    15
100
AcDbLine
 10
38.6964840164
 20
745.1479310345
 30
0.0
 11
38.6964840164
 21
756.6479310345
 31
0.0
  0
ARC
  5
E1
330
1F
100
AcDbEntity
  8
0
  6
Continuous
 62
     7
370
    15
100
AcDbCircle
 10
109.4464840164
 20
756.6479310345
 30
0.0
 40
2.25
100
AcDbArc
 50
0.0
 51
90.0
  0
ARC
  5
E2
330
1F
100
AcDbEntity
  8
0
  6
Continuous
 62
     7
370
    15
100
AcDbCircle
 10
109.4464840164
 20
756.6479310345
 30
0.0
 40
4.25
100
AcDbArc
 50
0.0
 51
90.0
  0
LINE
  5
E3
330
1F
100
AcDbEntity
  8
0
  6
Continuous
 62
     7
370
    15
100
AcDbLine
 10
898.2680144788
 20
680.171023903
 30
0.0
 11
897.4227779553
 21
681.983639477
 31
0.0
  0
LINE
  5
E4
330
1F
100
AcDbEntity
  8
0
  6
Continuous
 62
     7
370
    15
100
AcDbLine
 10
897.4227779553
 20
681.983639477
 30
0.0
 11
899.2353935294
 21
682.8288760005
 31
0.0
  0
LINE
  5
E5
330
1F
100
AcDbEntity
  8
0
  6
Continuous
 62
     7
370
    15
100
AcDbLine
 10
900.0806300528
 20
681.0162604264
 30
0.0
 11
898.2680144788
 21
680.171023903
 31
0.0
  0
LINE
  5
E6
330
1F
100
AcDbEntity
  8
0
  6
Continuous
 62
     7
370
    15
100
AcDbLine
 10
115.9464840164
 20
740.8979310345
 30
0.0
 11
926.696461161
 21
740.8979310345
 31
0.0
  0
LINE
  5
E7
330
1F
100
AcDbEntity
  8
0
  6
Continuous
 62
     7
370
    15
100
AcDbLine
 10
115.9464840164
 20
742.8979310345
 30
0.0
 11
926.696461161
 21
742.8979310345
 31
0.0
  0
LINE
  5
E8
330
1F
100
AcDbEntity
  8
0
  6
Continuous
 62
     7
370
    15
100
AcDbLine
 10
51.6964840164
 20
740.8979310345
 30
0.0
 11
42.9464840164
 21
740.8979310345
 31
0.0
  0
LINE
  5
E9
330
1F
100
AcDbEntity
  8
0
  6
Continuous
 62
     7
370
    15
100
AcDbLine
 10
51.6964840164
 20
742.8979310345
 30
0.0
 11
42.9464840164
 21
742.8979310345
 31
0.0
  0
LINE
  5
EA
330
1F
100
AcDbEntity
  8
0
  6
Continuous
 62
     7
370
    15
100
AcDbLine
 10
111.6964840164
 20
756.6479310345
 30
0.0
 11
111.6964840164
 21
745.1479310345
 31
0.0
  0
LINE
  5
EB
330
1F
100
AcDbEntity
  8
0
  6
Continuous
 62
     7
370
    15
100
AcDbLine
 10
113.6964840164
 20
756.6479310345
 30
0.0
 11
113.6964840164
 21
745.1479310345
 31
0.0
  0
ARC
  5
EC
330
1F
100
AcDbEntity
  8
0
  6
Continuous
 62
     7
370
    15
100
AcDbCircle
 10
42.9464840164
 20
756.6479310345
 30
0.0
 40
4.25
100
AcDbArc
 50
90.0
 51
180.0
  0
ARC
  5
ED
330
1F
100
AcDbEntity
  8
0
  6
Continuous
 62
     7
370
    15
100
AcDbCircle
 10
42.9464840164
 20
756.6479310345
 30
0.0
 40
2.25
100
AcDbArc
 50
90.0
 51
180.0
  0
LINE
  5
EE
330
1F
100
AcDbEntity
  8
0
  6
Continuous
 62
     7
370
    15
100
AcDbLine
 10
42.9464840164
 20
758.8979310345
 30
0.0
 11
109.4464840164
 21
758.8979310345
 31
0.0
  0
LINE
  5
EF
330
1F
100
AcDbEntity
  8
0
  6
Continuous
 62
     7
370
    15
100
AcDbLine
 10
42.9464840164
 20
760.8979310345
 30
0.0
 11
109.4464840164
 21
760.8979310345
 31
0.0
  0
ARC
  5
F0
330
1F
100
AcDbEntity
  8
0
  6
Continuous
 62
     7
370
    15
100
AcDbCircle
 10
926.696461161
 20
730.8979310345
 30
0.0
 40
10.00000000000009
100
AcDbArc
 50
335.0
 51
90.0
  0
ARC
  5
F1
330
1F
100
AcDbEntity
  8
0
  6
Continuous
 62
     7
370
    15
100
AcDbCircle
 10
926.696461161
 20
730.8979310345
 30
0.0
 40
12.00000000000006
100
AcDbArc
 50
335.0
 51
90.0
  0
ARC
  5
F2
330
1F
100
AcDbEntity
  8
0
  6
Continuous
 62
     7
370
    15
100
AcDbCircle
 10
42.9464840164
 20
745.1479310345
 30
0.0
 40
2.25
100
AcDbArc
 50
180.0
 51
270.0
  0
ARC
  5
F3
330
1F
100
AcDbEntity
  8
0
  6
Continuous
 62
     7
370
    15
100
AcDbCircle
 10
42.9464840164
 20
745.1479310345
 30
0.0
 40
4.25
100
AcDbArc
 50
180.0
 51
270.0
  0
LINE
  5
F4
330
1F
100
AcDbEntity
  8
0
  6
Continuous
 62
     7
370
    15
100
AcDbLine
 10
916.4845670552
 20
690.8722977125
 30
0.0
 11
899.2353935294
 21
682.8288760005
 31
0.0
  0
LINE
  5
F5
330
1F
100
AcDbEntity
  8
0
  6
Continuous
 62
     7
370
    15
100
AcDbLine
 10
917.3298035787
 20
689.0596821384
 30
0.0
 11
900.0806300528
 21
681.0162604264
 31
0.0
  0
LINE
  5
F6
330
1F
100
AcDbEntity
  8
0
  6
Continuous
 62
     7
370
    15
100
AcDbLine
 10
53.6964840164
 20
742.8979310345
 30
0.0
 11
53.6964840164
 21
740.8979310345
 31
0.0
  0
LINE
  5
F7
330
1F
100
AcDbEntity
  8
0
  6
Continuous
 62
     7
370
    15
100
AcDbLine
 10
53.6964840164
 20
740.8979310345
 30
0.0
 11
51.6964840164
 21
740.8979310345
 31
0.0
  0
LINE
  5
F8
330
1F
100
AcDbEntity
  8
0
  6
Continuous
 62
     7
370
    15
100
AcDbLine
 10
51.6964840164
 20
742.8979310345
 30
0.0
 11
53.6964840164
 21
742.8979310345
 31
0.0
  0
ARC
  5
F9
330
1F
100
AcDbEntity
  8
0
  6
Continuous
 62
     7
370
    15
100
AcDbCircle
 10
912.2583844378
 20
699.9353755828
 30
0.0
 40
11.99999999999995
100
AcDbArc
 50
295.0
 51
335.0
  0
ARC
  5
FA
330
1F
100
AcDbEntity
  8
0
  6
Continuous
 62
     7
370
    15
100
AcDbCircle
 10
912.2583844378
 20
699.9353755828
 30
0.0
 40
9.999999999999977
100
AcDbArc
 50
295.0
 51
335.0
  0
LINE
  5
FB
330
1F
100
AcDbEntity
  8
0
  6
Continuous
 62
     7
370
    15
100
AcDbLine
 10
937.5721546054
 20
725.8265118936
 30
0.0
 11
923.1340778823
 21
694.8639564419
 31
0.0
  0
LINE
  5
FC
330
1F
100
AcDbEntity
  8
0
  6
Continuous
 62
     7
370
    15
100
AcDbLine
 10
935.7595390314
 20
726.6717484171
 30
0.0
 11
921.3214623082
 21
695.7091929654
 31
0.0
  0
LINE
  5
FD
330
1F
100
AcDbEntity
  8
0
  6
Continuous
 62
     7
370
    15
100
AcDbLine
 10
898.2680144788
 20
680.171023903
 30
0.0
 11
896.4553989047
 21
679.3257873795
 31
0.0
  0
LINE
  5
FE
330
1F
100
AcDbEntity
  8
0
  6
Continuous
 62
     7
370
    15
100
AcDbLine
 10
896.4553989047
 20
679.3257873795
 30
0.0
 11
885.5797054603
 21
674.2543682386
 31
0.0
  0
LINE
  5
FF
330
1F
100
AcDbEntity
  8
0
  6
Continuous
 62
     7
370
    15
100
AcDbLine
 10
883.7670898862
 20
673.4091317151
 30
0.0
 11
883.2972934293
 21
674.4166134681
 31
0.0
  0
LINE
  5
100
330
1F
100
AcDbEntity
  8
0
  6
Continuous
 62
     7
370
    15
100
AcDbLine
 10
882.9591988199
 20
675.1416596977
 30
0.0
 11
882.9317958911
 21
675.2004254681
 31
0.0
  0
LINE
  5
101
330
1F
100
AcDbEntity
  8
0
  6
Continuous
 62
     7
370
    15
100
AcDbLine
 10
885.5797054603
 20
674.2543682386
 30
0.0
 11
883.7670898862
 21
673.4091317151
 31
0.0
  0
LINE
  5
102
330
1F
100
AcDbEntity
  8
0
  6
Continuous
 62
     7
370
    15
100
AcDbLine
 10
205.2375684705
 20
393.9979310345
 30
0.0
 11
152.2375684705
 21
393.9979310345
 31
0.0
  0
LINE
  5
103
330
1F
100
AcDbEntity
  8
0
  6
Continuous
 62
     7
370
    15
100
AcDbLine
 10
207.2375684705
 20
399.9979310345
 30
0.0
 11
150.2375684705
 21
399.9979310345
 31
0.0
  0
LINE
  5
104
330
1F
100
AcDbEntity
  8
0
  6
Continuous
 62
     7
370
    15
100
AcDbLine
 10
757.7375684705
 20
393.9979310345
 30
0.0
 11
731.2375684705
 21
393.9979310345
 31
0.0
  0
LINE
  5
105
330
1F
100
AcDbEntity
  8
0
  6
Continuous
 62
     7
370
    15
100
AcDbLine
 10
784.2375684705
 20
393.9979310345
 30
0.0
 11
757.7375684705
 21
393.9979310345
 31
0.0
  0
LINE
  5
106
330
1F
100
AcDbEntity
  8
0
  6
Continuous
 62
     7
370
    15
100
AcDbLine
 10
757.7375684705
 20
399.9979310345
 30
0.0
 11
729.2375684705
 21
399.9979310345
 31
0.0
  0
LINE
  5
107
330
1F
100
AcDbEntity
  8
0
  6
Continuous
 62
     7
370
    15
100
AcDbLine
 10
786.2375684705
 20
399.9979310345
 30
0.0
 11
757.7375684705
 21
399.9979310345
 31
0.0
  0
LINE
  5
108
330
1F
100
AcDbEntity
  8
0
  6
Continuous
 62
     7
370
    15
100
AcDbLine
 10
802.7375684705
 20
491.9979310345
 30
0.0
 11
802.7375684705
 21
493.6979310345
 31
0.0
  0
LINE
  5
109
330
1F
100
AcDbEntity
  8
0
  6
Continuous
 62
     7
370
    15
100
AcDbLine
 10
712.7375684705
 20
491.9979310345
 30
0.0
 11
802.7375684705
 21
491.9979310345
 31
0.0
  0
LINE
  5
10A
330
1F
100
AcDbEntity
  8
0
  6
Continuous
 62
     7
370
    15
100
AcDbLine
 10
712.7375684705
 20
491.9979310345
 30
0.0
 11
712.7375684705
 21
493.6979310345
 31
0.0
  0
LINE
  5
10B
330
1F
100
AcDbEntity
  8
0
  6
Continuous
 62
     7
370
    15
100
AcDbLine
 10
757.7375684705
 20
428.9979310345
 30
0.0
 11
726.7779182501
 21
428.9979310345
 31
0.0
  0
LINE
  5
10C
330
1F
100
AcDbEntity
  8
0
  6
Continuous
 62
     7
370
    15
100
AcDbLine
 10
788.6972186908
 20
428.9979310345
 30
0.0
 11
757.7375684705
 21
428.9979310345
 31
0.0
  0
LINE
  5
10D
330
1F
100
AcDbEntity
  8
0
  6
Continuous
 62
     7
370
    15
100
AcDbLine
 10
223.7375684705
 20
491.9979310345
 30
0.0
 11
223.7375684705
 21
493.6979310345
 31
0.0
  0
LINE
  5
10E
330
1F
100
AcDbEntity
  8
0
  6
Continuous
 62
     7
370
    15
100
AcDbLine
 10
133.7375684705
 20
491.9979310345
 30
0.0
 11
223.7375684705
 21
491.9979310345
 31
0.0
  0
LINE
  5
10F
330
1F
100
AcDbEntity
  8
0
  6
Continuous
 62
     7
370
    15
100
AcDbLine
 10
133.7375684705
 20
491.9979310345
 30
0.0
 11
133.7375684705
 21
493.6979310345
 31
0.0
  0
LINE
  5
110
330
1F
100
AcDbEntity
  8
0
  6
Continuous
 62
     7
370
    15
100
AcDbLine
 10
209.6972186908
 20
428.9979310345
 30
0.0
 11
147.7779182501
 21
428.9979310345
 31
0.0
  0
SPLINE
  5
111
330
1F
100
AcDbEntity
  8
0
  6
Continuous
 62
     7
370
    15
100
AcDbSpline
210
0.0
220
0.0
230
1.0
 70
     8
 71
     3
 72
    13
 73
     9
 74
     0
 42
0.00000001
 43
0.00000001
 12
1.0
 22
0.0
 32
0.0
 13
1.0
 23
0.0
 33
0.0
 40
0.0
 40
0.0
 40
0.0
 40
0.0
 40
0.1695411050600334
 40
0.3386458383077642
 40
0.5184804584270493
 40
0.7277236211487281
 40
0.9924537768853465
 40
1.0
 40
1.0
 40
1.0
 40
1.0
 10
85.7811640137035
 20
482.1479310344855
 30
0.0
 10
85.78161400493967
 20
482.1725421817722
 30
0.0
 10
85.7825128292063
 20
482.2217011311706
 30
0.0
 10
85.7893119713341
 20
482.2878369245511
 30
0.0
 10
85.79949766294537
 20
482.3435085276552
 30
0.0
 10
85.81399517772276
 20
482.3862273069278
 30
0.0
 10
85.82561013615658
 20
482.3978129665399
 30
0.0
 10
85.8320533613418
 20
482.397927850443
 30
0.0
 10
85.83223193729845
 20
482.3979310344855
 30
0.0
  0
LINE
  5
112
330
1F
100
AcDbEntity
  8
0
  6
Continuous
 62
     7
370
    15
100
AcDbLine
 10
79.4143270033
 20
482.3979310345
 30
0.0
 11
85.8322319373
 21
482.3979310345
 31
0.0
  0
SPLINE
  5
113
330
1F
100
AcDbEntity
  8
0
  6
Continuous
 62
     7
370
    15
100
AcDbSpline
210
0.0
220
0.0
230
1.0
 70
     8
 71
     3
 72
    13
 73
     9
 74
     0
 42
0.00000001
 43
0.00000001
 12
1.0
 22
0.0
 32
0.0
 13
1.0
 23
0.0
 33
0.0
 40
0.0
 40
0.0
 40
0.0
 40
0.0
 40
0.0075462231144877
 40
0.2722763788514103
 40
0.4815195415730433
 40
0.6613541616925399
 40
0.8304588949399232
 40
1.0
 40
1.0
 40
1.0
 40
1.0
 10
85.8322319372985
 20
481.1979310344855
 30
0.0
 10
85.8320533613418
 20
481.197934218528
 30
0.0
 10
85.82561013615647
 20
481.1980491024312
 30
0.0
 10
85.81399517772259
 20
481.2096347620433
 30
0.0
 10
85.79949766294554
 20
481.2523535413159
 30
0.0
 10
85.78931197133383
 20
481.30802514442
 30
0.0
 10
85.78251282920601
 20
481.3741609378004
 30
0.0
 10
85.78161400493967
 20
481.4233198871988
 30
0.0
 10
85.78116401370367
 20
481.4479310344855
 30
0.0
  0
LINE
  5
114
330
1F
100
AcDbEntity
  8
0
  6
Continuous
 62
     7
370
    15
100
AcDbLine
 10
85.8322319373
 20
481.1979310345
 30
0.0
 11
79.1266166468
 21
481.1979310345
 31
0.0
  0
LINE
  5
115
330
1F
100
AcDbEntity
  8
0
  6
Continuous
 62
     7
370
    15
100
AcDbLine
 10
85.7811640137
 20
482.1479310345
 30
0.0
 11
85.7811640137
 21
481.4479310345
 31
0.0
  0
SPLINE
  5
116
330
1F
100
AcDbEntity
  8
0
  6
Continuous
 62
     7
370
    15
100
AcDbSpline
210
0.0
220
0.0
230
1.0
 70
     8
 71
     3
 72
    12
 73
     8
 74
     0
 42
0.00000001
 43
0.00000001
 12
1.0
 22
0.0
 32
0.0
 13
1.0
 23
0.0
 33
0.0
 40
0.0
 40
0.0
 40
0.0
 40
0.0
 40
0.228944073851637
 40
0.4594214300241852
 40
0.6825355698157455
 40
0.8947175231628339
 40
1.0
 40
1.0
 40
1.0
 40
1.0
 10
90.23249041738035
 20
481.1979310344853
 30
0.0
 10
90.36658243399975
 20
481.2152655190628
 30
0.0
 10
90.6356645071617
 20
481.250050580582
 30
0.0
 10
90.98827156260408
 20
481.5239204263943
 30
0.0
 10
91.241281131271
 20
481.9209569608773
 30
0.0
 10
91.35462397613658
 20
482.32183295023
 30
0.0
 10
91.36426363071709
 20
482.5667183433171
 30
0.0
 10
91.36746048243832
 20
482.6479310344853
 30
0.0
  0
LINE
  5
117
330
1F
100
AcDbEntity
  8
0
  6
Continuous
 62
     7
370
    15
100
AcDbLine
 10
90.2324904174
 20
481.1979310345
 30
0.0
 11
86.0623933128
 21
481.1979310345
 31
0.0
  0
LINE
  5
118
330
1F
100
AcDbEntity
  8
0
  6
Continuous
 62
     7
370
    15
100
AcDbLine
 10
86.9735915148
 20
487.9979310345
 30
0.0
 11
91.1436886194
 21
487.9979310345
 31
0.0
  0
LINE
  5
119
330
1F
100
AcDbEntity
  8
0
  6
Continuous
 62
     7
370
    15
100
AcDbLine
 10
86.4437182201
 20
487.9979310345
 30
0.0
 11
86.9735915148
 21
487.9979310345
 31
0.0
  0
LINE
  5
11A
330
1F
100
AcDbEntity
  8
0
  6
Continuous
 62
     7
370
    15
100
AcDbLine
 10
85.8322319373
 20
482.3979310345
 30
0.0
 11
86.0623933128
 21
482.3979310345
 31
0.0
  0
LINE
  5
11B
330
1F
100
AcDbEntity
  8
0
  6
Continuous
 62
     7
370
    15
100
AcDbLine
 10
86.0623933128
 20
481.1979310345
 30
0.0
 11
85.8322319373
 21
481.1979310345
 31
0.0
  0
LINE
  5
11C
330
1F
100
AcDbEntity
  8
0
  6
Continuous
 62
     7
370
    15
100
AcDbLine
 10
91.3674604824
 20
482.6479310345
 30
0.0
 11
91.3936886194
 21
482.6479310345
 31
0.0
  0
LINE
  5
11D
330
1F
100
AcDbEntity
  8
0
  6
Continuous
 62
     7
370
    15
100
AcDbLine
 10
90.6875684705
 20
481.1979310345
 30
0.0
 11
90.2324904174
 21
481.1979310345
 31
0.0
  0
SPLINE
  5
11E
330
1F
100
AcDbEntity
  8
0
  6
Continuous
 62
     7
370
    15
100
AcDbSpline
210
0.0
220
0.0
230
1.0
 70
     8
 71
     3
 72
    11
 73
     7
 74
     0
 42
0.00000001
 43
0.00000001
 12
1.0
 22
0.0
 32
0.0
 13
1.0
 23
0.0
 33
0.0
 40
0.0
 40
0.0
 40
0.0
 40
0.0
 40
0.079633295975108
 40
0.4594981978903516
 40
0.8207504115405739
 40
1.0
 40
1.0
 40
1.0
 40
1.0
 10
73.56992247459942
 20
481.4964216644589
 30
0.0
 10
73.54585931003938
 20
481.5133843948799
 30
0.0
 10
73.40701059587434
 20
481.6112623486213
 30
0.0
 10
73.23776530049354
 20
481.9296034256631
 30
0.0
 10
73.1200920802007
 20
482.320902096573
 30
0.0
 10
73.1107684915363
 20
482.5664865200276
 30
0.0
 10
73.10767645849492
 20
482.6479310344852
 30
0.0
  0
ARC
  5
11F
330
1F
100
AcDbEntity
  8
0
  6
Continuous
 62
     7
370
    15
100
AcDbCircle
 10
73.8488983035
 20
487.7591808436
 30
0.0
 40
0.2390731945685255
100
AcDbArc
 50
357.3028984186
 51
87.0213133887
  0
LINE
  5
120
330
1F
100
AcDbEntity
  8
0
  6
Continuous
 62
     7
370
    15
100
AcDbLine
 10
73.3314483215
 20
487.9979310345
 30
0.0
 11
73.8613216162
 21
487.9979310345
 31
0.0
  0
LINE
  5
121
330
1F
100
AcDbEntity
  8
0
  6
Continuous
 62
     7
370
    15
100
AcDbLine
 10
73.8613216162
 20
487.9979310345
 30
0.0
 11
76.597383213
 21
487.9979310345
 31
0.0
  0
SPLINE
  5
122
330
1F
100
AcDbEntity
  8
0
  6
Continuous
 62
     7
370
    15
100
AcDbSpline
210
0.0
220
0.0
230
1.0
 70
     8
 71
     3
 72
    13
 73
     9
 74
     0
 42
0.00000001
 43
0.00000001
 12
1.0
 22
0.0
 32
0.0
 13
1.0
 23
0.0
 33
0.0
 40
0.0
 40
0.0
 40
0.0
 40
0.0
 40
0.1695411050600831
 40
0.338645838307664
 40
0.5184804584265529
 40
0.7277236211485207
 40
0.9924537768853897
 40
0.9999999999999999
 40
0.9999999999999999
 40
0.9999999999999999
 40
0.9999999999999999
 10
79.50656321584687
 20
483.3479310344853
 30
0.0
 10
79.5058604124515
 20
483.372542181772
 30
0.0
 10
79.5044566145649
 20
483.4217011311704
 30
0.0
 10
79.49381868887329
 20
483.4878369245508
 30
0.0
 10
79.47782602454373
 20
483.5435085276551
 30
0.0
 10
79.45494977946387
 20
483.5862273069274
 30
0.0
 10
79.43648518028218
 20
483.5978129665397
 30
0.0
 10
79.42619283763914
 20
483.5979278504428
 30
0.0
 10
79.4259075822149
 20
483.5979310344853
 30
0.0
  0
LINE
  5
123
330
1F
100
AcDbEntity
  8
0
  6
Continuous
 62
     7
370
    15
100
AcDbLine
 10
79.4259075822
 20
483.5979310345
 30
0.0
 11
86.1937182201
 21
483.5979310345
 31
0.0
  0
SPLINE
  5
124
330
1F
100
AcDbEntity
  8
0
  6
Continuous
 62
     7
370
    15
100
AcDbSpline
210
0.0
220
0.0
230
1.0
 70
     8
 71
     3
 72
    13
 73
     9
 74
     0
 42
0.00000001
 43
0.00000001
 12
1.0
 22
0.0
 32
0.0
 13
1.0
 23
0.0
 33
0.0
 40
0.0
 40
0.0
 40
0.0
 40
0.0
 40
0.0075462231145411
 40
0.27227637885143
 40
0.4815195415734136
 40
0.6613541616923686
 40
0.8304588949399434
 40
1.0
 40
1.0
 40
1.0
 40
1.0
 10
79.42590758221513
 20
482.3979310344853
 30
0.0
 10
79.42619283763929
 20
482.3979342185278
 30
0.0
 10
79.43648518028212
 20
482.3980491024309
 30
0.0
 10
79.4549497794641
 20
482.4096347620433
 30
0.0
 10
79.47782602454362
 20
482.4523535413154
 30
0.0
 10
79.49381868887345
 20
482.5080251444198
 30
0.0
 10
79.50445661456507
 20
482.5741609378002
 30
0.0
 10
79.50586041245155
 20
482.6233198871986
 30
0.0
 10
79.50656321584687
 20
482.6479310344853
 30
0.0
  0
LINE
  5
125
330
1F
100
AcDbEntity
  8
0
  6
Continuous
 62
     7
370
    15
100
AcDbLine
 10
85.8484278702
 20
482.3979310345
 30
0.0
 11
79.4259075822
 21
482.3979310345
 31
0.0
  0
LINE
  5
126
330
1F
100
AcDbEntity
  8
0
  6
Continuous
 62
     7
370
    15
100
AcDbLine
 10
79.5065632158
 20
482.6479310345
 30
0.0
 11
79.5065632158
 21
483.3479310345
 31
0.0
  0
SPLINE
  5
127
330
1F
100
AcDbEntity
  8
0
  6
Continuous
 62
     7
370
    15
100
AcDbSpline
210
0.0
220
0.0
230
1.0
 70
     8
 71
     3
 72
    12
 73
     8
 74
     0
 42
0.00000001
 43
0.00000001
 12
1.0
 22
0.0
 32
0.0
 13
1.0
 23
0.0
 33
0.0
 40
0.0
 40
0.0
 40
0.0
 40
0.0
 40
0.2289440738515901
 40
0.459421430024132
 40
0.6825355698157687
 40
0.8947175231628791
 40
0.9999999999999999
 40
0.9999999999999999
 40
0.9999999999999999
 40
0.9999999999999999
 10
74.63844110169038
 20
483.5979310344853
 30
0.0
 10
74.51663018732613
 20
483.5805965499077
 30
0.0
 10
74.27219256756906
 20
483.5458114883886
 30
0.0
 10
73.95225280617623
 20
483.2719416425763
 30
0.0
 10
73.72280631568218
 20
482.8749051080933
 30
0.0
 10
73.62006010631012
 20
482.4740291187406
 30
0.0
 10
73.61132177305518
 20
482.2291437256535
 30
0.0
 10
73.60842383148741
 20
482.1479310344853
 30
0.0
  0
LINE
  5
128
330
1F
100
AcDbEntity
  8
0
  6
Continuous
 62
     7
370
    15
100
AcDbLine
 10
74.6384411017
 20
483.5979310345
 30
0.0
 11
79.2191563259
 21
483.5979310345
 31
0.0
  0
LINE
  5
129
330
1F
100
AcDbEntity
  8
0
  6
Continuous
 62
     7
370
    15
100
AcDbLine
 10
78.4006376988
 20
476.7979310345
 30
0.0
 11
73.8199224746
 21
476.7979310345
 31
0.0
  0
LINE
  5
12A
330
1F
100
AcDbEntity
  8
0
  6
Continuous
 62
     7
370
    15
100
AcDbLine
 10
78.8766166468
 20
476.7979310345
 30
0.0
 11
78.4006376988
 21
476.7979310345
 31
0.0
  0
LINE
  5
12B
330
1F
100
AcDbEntity
  8
0
  6
Continuous
 62
     7
370
    15
100
AcDbLine
 10
79.2191563259
 20
483.5979310345
 30
0.0
 11
79.4259075822
 21
483.5979310345
 31
0.0
  0
LINE
  5
12C
330
1F
100
AcDbEntity
  8
0
  6
Continuous
 62
     7
370
    15
100
AcDbLine
 10
79.4259075822
 20
482.3979310345
 30
0.0
 11
79.2191563259
 21
482.3979310345
 31
0.0
  0
LINE
  5
12D
330
1F
100
AcDbEntity
  8
0
  6
Continuous
 62
     7
370
    15
100
AcDbLine
 10
73.6084238315
 20
482.1479310345
 30
0.0
 11
73.5699224746
 21
482.1479310345
 31
0.0
  0
LINE
  5
12E
330
1F
100
AcDbEntity
  8
0
  6
Continuous
 62
     7
370
    15
100
AcDbLine
 10
73.7875684705
 20
483.5979310345
 30
0.0
 11
74.6384411017
 21
483.5979310345
 31
0.0
  0
ARC
  5
12F
330
1F
100
AcDbEntity
  8
0
  6
Continuous
 62
     7
370
    15
100
AcDbCircle
 10
90.1983720346
 20
477.0315012138
 30
0.0
 40
0.2343528001292641
100
AcDbArc
 50
175.9798550465
 51
265.3161909111
  0
LINE
  5
130
330
1F
100
AcDbEntity
  8
0
  6
Continuous
 62
     7
370
    15
100
AcDbLine
 10
90.1792355183
 20
476.7979310345
 30
0.0
 11
87.9673565069
 21
476.7979310345
 31
0.0
  0
LINE
  5
131
330
1F
100
AcDbEntity
  8
0
  6
Continuous
 62
     7
370
    15
100
AcDbLine
 10
90.6552144663
 20
476.7979310345
 30
0.0
 11
90.1792355183
 21
476.7979310345
 31
0.0
  0
LINE
  5
132
330
1F
100
AcDbEntity
  8
0
  6
Continuous
 62
     7
370
    15
100
AcDbLine
 10
78.3491909095
 20
488.3513490471
 30
0.0
 11
81.1692835383
 21
488.7979310345
 31
0.0
  0
SPLINE
  5
133
330
1F
100
AcDbEntity
  8
0
  6
Continuous
 62
     7
370
    15
100
AcDbSpline
210
0.0
220
0.0
230
1.0
 70
     8
 71
     3
 72
     9
 73
     5
 74
     0
 42
0.00000001
 43
0.00000001
 12
1.0
 22
0.0
 32
0.0
 13
1.0
 23
0.0
 33
0.0
 40
0.0
 40
0.0
 40
0.0
 40
0.0
 40
0.0702005767034236
 40
1.0
 40
1.0
 40
1.0
 40
1.0
 10
81.16928353825298
 20
488.7979310344853
 30
0.0
 10
81.23613641986671
 20
488.7974849182177
 30
0.0
 10
82.18844884738607
 20
488.7911300378373
 30
0.0
 10
83.12166879648619
 20
488.5632405559418
 30
0.0
 10
83.98937616696838
 20
488.3513490471001
 30
0.0
  0
LINE
  5
134
330
1F
100
AcDbEntity
  8
0
  6
Continuous
 62
     7
370
    15
100
AcDbLine
 10
83.989376167
 20
488.3513490471
 30
0.0
 11
83.989376167
 21
484.0445130219
 31
0.0
  0
SPLINE
  5
135
330
1F
100
AcDbEntity
  8
0
  6
Continuous
 62
     7
370
    15
100
AcDbSpline
210
0.0
220
0.0
230
1.0
 70
     8
 71
     3
 72
     9
 73
     5
 74
     0
 42
0.00000001
 43
0.00000001
 12
1.0
 22
0.0
 32
0.0
 13
1.0
 23
0.0
 33
0.0
 40
0.0
 40
0.0
 40
0.0
 40
0.0
 40
0.0702005767034236
 40
1.0
 40
1.0
 40
1.0
 40
1.0
 10
81.16928353825298
 20
483.5979310344853
 30
0.0
 10
81.23613641986671
 20
483.5983771507529
 30
0.0
 10
82.18844884738607
 20
483.6047320311333
 30
0.0
 10
83.12166879648619
 20
483.8326215130288
 30
0.0
 10
83.98937616696838
 20
484.0445130218704
 30
0.0
  0
LINE
  5
136
330
1F
100
AcDbEntity
  8
0
  6
Continuous
 62
     7
370
    15
100
AcDbLine
 10
78.3491909095
 20
484.0445130219
 30
0.0
 11
81.1692835383
 21
483.5979310345
 31
0.0
  0
LINE
  5
137
330
1F
100
AcDbEntity
  8
0
  6
Continuous
 62
     7
370
    15
100
AcDbLine
 10
78.3491909095
 20
488.3513490471
 30
0.0
 11
78.3491909095
 21
484.0445130219
 31
0.0
  0
LINE
  5
138
330
1F
100
AcDbEntity
  8
0
  6
Continuous
 62
     7
370
    15
100
AcDbLine
 10
83.989376167
 20
488.3513490471
 30
0.0
 11
85.9335649474
 21
488.7979310345
 31
0.0
  0
LINE
  5
139
330
1F
100
AcDbEntity
  8
0
  6
Continuous
 62
     7
370
    15
100
AcDbLine
 10
81.1692835383
 20
488.7979310345
 30
0.0
 11
85.9335649474
 21
488.7979310345
 31
0.0
  0
LINE
  5
13A
330
1F
100
AcDbEntity
  8
0
  6
Continuous
 62
     7
370
    15
100
AcDbLine
 10
83.989376167
 20
484.0445130219
 30
0.0
 11
85.9335649474
 21
483.5979310345
 31
0.0
  0
SPLINE
  5
13B
330
1F
100
AcDbEntity
  8
0
  6
Continuous
 62
     7
370
    15
100
AcDbSpline
210
0.0
220
0.0
230
1.0
 70
     8
 71
     3
 72
     9
 73
     5
 74
     0
 42
0.00000001
 43
0.00000001
 12
1.0
 22
0.0
 32
0.0
 13
1.0
 23
0.0
 33
0.0
 40
0.0
 40
0.0
 40
0.0
 40
0.0
 40
0.2575513451038088
 40
1.0
 40
1.0
 40
1.0
 40
1.0
 10
78.34919090953757
 20
484.0445130218704
 30
0.0
 10
78.27565725965758
 20
483.9770977990956
 30
0.0
 10
77.9901466176906
 20
483.7153433021517
 30
0.0
 10
77.69351833257498
 20
483.6479598143591
 30
0.0
 10
77.47328706128664
 20
483.5979310344853
 30
0.0
  0
SPLINE
  5
13C
330
1F
100
AcDbEntity
  8
0
  6
Continuous
 62
     7
370
    15
100
AcDbSpline
210
0.0
220
0.0
230
1.0
 70
     8
 71
     3
 72
     9
 73
     5
 74
     0
 42
0.00000001
 43
0.00000001
 12
1.0
 22
0.0
 32
0.0
 13
1.0
 23
0.0
 33
0.0
 40
0.0
 40
0.0
 40
0.0
 40
0.0
 40
0.2575513451038088
 40
1.0
 40
1.0
 40
1.0
 40
1.0
 10
78.34919090953757
 20
488.3513490471001
 30
0.0
 10
78.27565725965758
 20
488.4187642698749
 30
0.0
 10
77.9901466176906
 20
488.6805187668189
 30
0.0
 10
77.69351833257498
 20
488.7479022546115
 30
0.0
 10
77.47328706128664
 20
488.7979310344853
 30
0.0
  0
LINE
  5
13D
330
1F
100
AcDbEntity
  8
0
  6
Continuous
 62
     7
370
    15
100
AcDbLine
 10
77.4732870613
 20
488.7979310345
 30
0.0
 11
81.1692835383
 21
488.7979310345
 31
0.0
  0
SPLINE
  5
13E
330
1F
100
AcDbEntity
  8
0
  6
Continuous
 62
     7
370
    15
100
AcDbSpline
210
0.0
220
0.0
230
1.0
 70
     8
 71
     3
 72
     9
 73
     5
 74
     0
 42
0.00000001
 43
0.00000001
 12
1.0
 22
0.0
 32
0.0
 13
1.0
 23
0.0
 33
0.0
 40
0.0
 40
0.0
 40
0.0
 40
0.0
 40
0.0702005767034292
 40
1.0
 40
1.0
 40
1.0
 40
1.0
 10
85.93356494743293
 20
488.7979310344853
 30
0.0
 10
85.9796537251743
 20
488.7974849182177
 30
0.0
 10
86.63618362714543
 20
488.7911300378373
 30
0.0
 10
87.27955105992824
 20
488.5632405559418
 30
0.0
 10
87.87775372789747
 20
488.3513490471001
 30
0.0
  0
LINE
  5
13F
330
1F
100
AcDbEntity
  8
0
  6
Continuous
 62
     7
370
    15
100
AcDbLine
 10
87.8777537279
 20
488.3513490471
 30
0.0
 11
87.8777537279
 21
487.9979310345
 31
0.0
  0
SPLINE
  5
140
330
1F
100
AcDbEntity
  8
0
  6
Continuous
 62
     7
370
    15
100
AcDbSpline
210
0.0
220
0.0
230
1.0
 70
     8
 71
     3
 72
     9
 73
     5
 74
     0
 42
0.00000001
 43
0.00000001
 12
1.0
 22
0.0
 32
0.0
 13
1.0
 23
0.0
 33
0.0
 40
0.0
 40
0.0
 40
0.0
 40
0.0
 40
0.5278771639354035
 40
0.9999999999999999
 40
0.9999999999999999
 40
0.9999999999999999
 40
0.9999999999999999
 10
85.93356494743293
 20
483.5979310344853
 30
0.0
 10
85.97979469153555
 20
483.5960045771732
 30
0.0
 10
86.06737139926418
 20
483.592355134758
 30
0.0
 10
86.15319767528068
 20
483.6181668205155
 30
0.0
 10
86.19371822012224
 20
483.6303531067989
 30
0.0
  0
LINE
  5
141
330
1F
100
AcDbEntity
  8
0
  6
Continuous
 62
     7
370
    15
100
AcDbLine
 10
77.0013065961
 20
483.784009883
 30
0.0
 11
76.597383213
 21
484.0445130219
 31
0.0
  0
LINE
  5
142
330
1F
100
AcDbEntity
  8
0
  6
Continuous
 62
     7
370
    15
100
AcDbLine
 10
76.597383213
 20
488.3513490471
 30
0.0
 11
76.597383213
 21
484.0445130219
 31
0.0
  0
SPLINE
  5
143
330
1F
100
AcDbEntity
  8
0
  6
Continuous
 62
     7
370
    15
100
AcDbSpline
210
0.0
220
0.0
230
1.0
 70
     8
 71
     3
 72
     9
 73
     5
 74
     0
 42
0.00000001
 43
0.00000001
 12
1.0
 22
0.0
 32
0.0
 13
1.0
 23
0.0
 33
0.0
 40
0.0
 40
0.0
 40
0.0
 40
0.0
 40
0.2686336050555651
 40
1.0
 40
1.0
 40
1.0
 40
1.0
 10
77.47328706128664
 20
488.7979310344853
 30
0.0
 10
77.39364289207967
 20
488.7913020819008
 30
0.0
 10
77.09716409081253
 20
488.7666255244645
 30
0.0
 10
76.80850140263962
 20
488.5267707608645
 30
0.0
 10
76.59738321303571
 20
488.3513490471001
 30
0.0
  0
SPLINE
  5
144
330
1F
100
AcDbEntity
  8
0
  6
Continuous
 62
     7
370
    15
100
AcDbSpline
210
0.0
220
0.0
230
1.0
 70
     8
 71
     3
 72
     9
 73
     5
 74
     0
 42
0.00000001
 43
0.00000001
 12
1.0
 22
0.0
 32
0.0
 13
1.0
 23
0.0
 33
0.0
 40
0.0
 40
0.0
 40
0.0
 40
0.0
 40
0.5569342110492153
 40
1.0
 40
1.0
 40
1.0
 40
1.0
 10
87.87775372789747
 20
488.3513490471001
 30
0.0
 10
87.80450582538568
 20
488.4237600233444
 30
0.0
 10
87.6729859778731
 20
488.5537771327403
 30
0.0
 10
87.53632483379337
 20
488.593908374357
 30
0.0
 10
87.47577495617276
 20
488.6116891545855
 30
0.0
  0
LINE
  5
145
330
1F
100
AcDbEntity
  8
0
  6
Continuous
 62
     7
370
    15
100
AcDbLine
 10
85.9335649474
 20
488.7979310345
 30
0.0
 11
87.2375684705
 21
488.7979310345
 31
0.0
  0
LINE
  5
146
330
1F
100
AcDbEntity
  8
0
  6
Continuous
 62
     7
370
    15
100
AcDbLine
 10
77.4732870613
 20
488.7979310345
 30
0.0
 11
77.2375684705
 21
488.7979310345
 31
0.0
  0
LINE
  5
147
330
1F
100
AcDbEntity
  8
0
  6
Continuous
 62
     7
370
    15
100
AcDbLine
 10
79.9867972359
 20
480.7513490471
 30
0.0
 11
82.8516912541
 21
481.1979310345
 31
0.0
  0
SPLINE
  5
148
330
1F
100
AcDbEntity
  8
0
  6
Continuous
 62
     7
370
    15
100
AcDbSpline
210
0.0
220
0.0
230
1.0
 70
     8
 71
     3
 72
     9
 73
     5
 74
     0
 42
0.00000001
 43
0.00000001
 12
1.0
 22
0.0
 32
0.0
 13
1.0
 23
0.0
 33
0.0
 40
0.0
 40
0.0
 40
0.0
 40
0.0
 40
0.0702005767034217
 40
0.9999999999999999
 40
0.9999999999999999
 40
0.9999999999999999
 40
0.9999999999999999
 10
82.85169125409281
 20
481.1979310344853
 30
0.0
 10
82.91960619372446
 20
481.1974849182177
 30
0.0
 10
83.88704752855219
 20
481.1911300378372
 30
0.0
 10
84.8350930723838
 20
480.9632405559418
 30
0.0
 10
85.71658527229725
 20
480.7513490471001
 30
0.0
  0
LINE
  5
149
330
1F
100
AcDbEntity
  8
0
  6
Continuous
 62
     7
370
    15
100
AcDbLine
 10
85.7165852723
 20
480.7513490471
 30
0.0
 11
85.7165852723
 21
476.4445130219
 31
0.0
  0
SPLINE
  5
14A
330
1F
100
AcDbEntity
  8
0
  6
Continuous
 62
     7
370
    15
100
AcDbSpline
210
0.0
220
0.0
230
1.0
 70
     8
 71
     3
 72
     9
 73
     5
 74
     0
 42
0.00000001
 43
0.00000001
 12
1.0
 22
0.0
 32
0.0
 13
1.0
 23
0.0
 33
0.0
 40
0.0
 40
0.0
 40
0.0
 40
0.0
 40
0.0702005767034217
 40
1.0
 40
1.0
 40
1.0
 40
1.0
 10
82.85169125409281
 20
475.9979310344853
 30
0.0
 10
82.91960619372446
 20
475.9983771507529
 30
0.0
 10
83.88704752855215
 20
476.0047320311333
 30
0.0
 10
84.83509307238369
 20
476.2326215130287
 30
0.0
 10
85.71658527229725
 20
476.4445130218705
 30
0.0
  0
LINE
  5
14B
330
1F
100
AcDbEntity
  8
0
  6
Continuous
 62
     7
370
    15
100
AcDbLine
 10
79.9867972359
 20
476.4445130219
 30
0.0
 11
82.8516912541
 21
475.9979310345
 31
0.0
  0
LINE
  5
14C
330
1F
100
AcDbEntity
  8
0
  6
Continuous
 62
     7
370
    15
100
AcDbLine
 10
79.9867972359
 20
480.7513490471
 30
0.0
 11
79.9867972359
 21
476.4445130219
 31
0.0
  0
SPLINE
  5
14D
330
1F
100
AcDbEntity
  8
0
  6
Continuous
 62
     7
370
    15
100
AcDbSpline
210
0.0
220
0.0
230
1.0
 70
     8
 71
     3
 72
     9
 73
     5
 74
     0
 42
0.00000001
 43
0.00000001
 12
1.0
 22
0.0
 32
0.0
 13
1.0
 23
0.0
 33
0.0
 40
0.0
 40
0.0
 40
0.0
 40
0.0
 40
0.5174000252722375
 40
1.0
 40
1.0
 40
1.0
 40
1.0
 10
79.9867972358883
 20
480.7513490471001
 30
0.0
 10
79.84125502835543
 20
480.8231003227796
 30
0.0
 10
79.55995970476864
 20
480.961776921494
 30
0.0
 10
79.26767381152867
 20
481.003699534103
 30
0.0
 10
79.12661664683768
 20
481.0239313858887
 30
0.0
  0
SPLINE
  5
14E
330
1F
100
AcDbEntity
  8
0
  6
Continuous
 62
     7
370
    15
100
AcDbSpline
210
0.0
220
0.0
230
1.0
 70
     8
 71
     3
 72
     9
 73
     5
 74
     0
 42
0.00000001
 43
0.00000001
 12
1.0
 22
0.0
 32
0.0
 13
1.0
 23
0.0
 33
0.0
 40
0.0
 40
0.0
 40
0.0
 40
0.0
 40
0.2575513451038039
 40
1.0
 40
1.0
 40
1.0
 40
1.0
 10
79.9867972358883
 20
476.4445130218705
 30
0.0
 10
79.84076248336191
 20
476.3770977990956
 30
0.0
 10
79.27375029219064
 20
476.1153433021516
 30
0.0
 10
78.68465892681049
 20
476.0479598143591
 30
0.0
 10
78.247288834973
 20
475.9979310344853
 30
0.0
  0
LINE
  5
14F
330
1F
100
AcDbEntity
  8
0
  6
Continuous
 62
     7
370
    15
100
AcDbLine
 10
82.8516912541
 20
475.9979310345
 30
0.0
 11
78.247288835
 21
475.9979310345
 31
0.0
  0
LINE
  5
150
330
1F
100
AcDbEntity
  8
0
  6
Continuous
 62
     7
370
    15
100
AcDbLine
 10
85.7165852723
 20
480.7513490471
 30
0.0
 11
86.8419708896
 21
481.1979310345
 31
0.0
  0
LINE
  5
151
330
1F
100
AcDbEntity
  8
0
  6
Continuous
 62
     7
370
    15
100
AcDbLine
 10
85.7165852723
 20
476.4445130219
 30
0.0
 11
86.8419708896
 21
475.9979310345
 31
0.0
  0
LINE
  5
152
330
1F
100
AcDbEntity
  8
0
  6
Continuous
 62
     7
370
    15
100
AcDbLine
 10
86.8419708896
 20
475.9979310345
 30
0.0
 11
82.8516912541
 21
475.9979310345
 31
0.0
  0
SPLINE
  5
153
330
1F
100
AcDbEntity
  8
0
  6
Continuous
 62
     7
370
    15
100
AcDbSpline
210
0.0
220
0.0
230
1.0
 70
     8
 71
     3
 72
     9
 73
     5
 74
     0
 42
0.00000001
 43
0.00000001
 12
1.0
 22
0.0
 32
0.0
 13
1.0
 23
0.0
 33
0.0
 40
0.0
 40
0.0
 40
0.0
 40
0.0
 40
0.2686336050555708
 40
1.0
 40
1.0
 40
1.0
 40
1.0
 10
78.247288834973
 20
475.9979310344853
 30
0.0
 10
78.0891188466849
 20
476.0045599870697
 30
0.0
 10
77.50032434997462
 20
476.029236544506
 30
0.0
 10
76.92705232689772
 20
476.2690913081061
 30
0.0
 10
76.5077804340576
 20
476.4445130218705
 30
0.0
  0
LINE
  5
154
330
1F
100
AcDbEntity
  8
0
  6
Continuous
 62
     7
370
    15
100
AcDbLine
 10
76.5077804341
 20
476.7979310345
 30
0.0
 11
76.5077804341
 21
476.4445130219
 31
0.0
  0
LINE
  5
155
330
1F
100
AcDbEntity
  8
0
  6
Continuous
 62
     7
370
    15
100
AcDbLine
 10
87.9673565069
 20
480.7513490471
 30
0.0
 11
87.9673565069
 21
476.4445130219
 31
0.0
  0
SPLINE
  5
156
330
1F
100
AcDbEntity
  8
0
  6
Continuous
 62
     7
370
    15
100
AcDbSpline
210
0.0
220
0.0
230
1.0
 70
     8
 71
     3
 72
     9
 73
     5
 74
     0
 42
0.00000001
 43
0.00000001
 12
1.0
 22
0.0
 32
0.0
 13
1.0
 23
0.0
 33
0.0
 40
0.0
 40
0.0
 40
0.0
 40
0.0
 40
0.0702005767034239
 40
1.0
 40
1.0
 40
1.0
 40
1.0
 10
86.84197088958634
 20
475.9979310344853
 30
0.0
 10
86.86864918755299
 20
475.9983771507529
 30
0.0
 10
87.24867880012083
 20
476.0047320311333
 30
0.0
 10
87.62108937195484
 20
476.2326215130287
 30
0.0
 10
87.96735650687553
 20
476.4445130218705
 30
0.0
  0
LINE
  5
157
330
1F
100
AcDbEntity
  8
0
  6
Continuous
 62
     7
370
    15
100
AcDbLine
 10
76.8065312986
 20
476.317583378
 30
0.0
 11
76.5077804341
 21
476.4445130219
 31
0.0
  0
LINE
  5
158
330
1F
100
AcDbEntity
  8
0
  6
Continuous
 62
     7
370
    15
100
AcDbLine
 10
78.247288835
 20
475.9979310345
 30
0.0
 11
77.2375684705
 21
475.9979310345
 31
0.0
  0
LINE
  5
159
330
1F
100
AcDbEntity
  8
0
  6
Continuous
 62
     7
370
    15
100
AcDbLine
 10
87.2375684705
 20
475.9979310345
 30
0.0
 11
86.8419708896
 21
475.9979310345
 31
0.0
  0
LINE
  5
15A
330
1F
100
AcDbEntity
  8
0
  6
Continuous
 62
     7
370
    15
100
AcDbLine
 10
86.6116228288
 20
493.6979310345
 30
0.0
 11
86.6116228288
 21
489.4945130219
 31
0.0
  0
SPLINE
  5
15B
330
1F
100
AcDbEntity
  8
0
  6
Continuous
 62
     7
370
    15
100
AcDbSpline
210
0.0
220
0.0
230
1.0
 70
     8
 71
     3
 72
     9
 73
     5
 74
     0
 42
0.00000001
 43
0.00000001
 12
1.0
 22
0.0
 32
0.0
 13
1.0
 23
0.0
 33
0.0
 40
0.0
 40
0.0
 40
0.0
 40
0.0
 40
0.0702005767034136
 40
1.0
 40
1.0
 40
1.0
 40
1.0
 10
83.88633594358275
 20
489.0479310344853
 30
0.0
 10
83.95094136811493
 20
489.0483771507529
 30
0.0
 10
84.8712390004997
 20
489.0547320311333
 30
0.0
 10
85.77308600452122
 20
489.2826215130287
 30
0.0
 10
86.61162282876217
 20
489.4945130218705
 30
0.0
  0
LINE
  5
15C
330
1F
100
AcDbEntity
  8
0
  6
Continuous
 62
     7
370
    15
100
AcDbLine
 10
81.1610490584
 20
489.4945130219
 30
0.0
 11
83.8863359436
 21
489.0479310345
 31
0.0
  0
LINE
  5
15D
330
1F
100
AcDbEntity
  8
0
  6
Continuous
 62
     7
370
    15
100
AcDbLine
 10
81.1610490584
 20
493.6979310345
 30
0.0
 11
81.1610490584
 21
489.4945130219
 31
0.0
  0
SPLINE
  5
15E
330
1F
100
AcDbEntity
  8
0
  6
Continuous
 62
     7
370
    15
100
AcDbSpline
210
0.0
220
0.0
230
1.0
 70
     8
 71
     3
 72
     9
 73
     5
 74
     0
 42
0.00000001
 43
0.00000001
 12
1.0
 22
0.0
 32
0.0
 13
1.0
 23
0.0
 33
0.0
 40
0.0
 40
0.0
 40
0.0
 40
0.0
 40
0.0702005767034201
 40
1.0
 40
1.0
 40
1.0
 40
1.0
 10
78.97402187925539
 20
489.0479310344853
 30
0.0
 10
79.02586736390538
 20
489.0483771507529
 30
0.0
 10
79.76440096411996
 20
489.0547320311333
 30
0.0
 10
80.48812804032424
 20
489.2826215130287
 30
0.0
 10
81.16104905840315
 20
489.4945130218705
 30
0.0
  0
LINE
  5
15F
330
1F
100
AcDbEntity
  8
0
  6
Continuous
 62
     7
370
    15
100
AcDbLine
 10
83.8863359436
 20
489.0479310345
 30
0.0
 11
78.9740218793
 21
489.0479310345
 31
0.0
  0
LINE
  5
160
330
1F
100
AcDbEntity
  8
0
  6
Continuous
 62
     7
370
    15
100
AcDbLine
 10
76.7869947001
 20
489.4945130219
 30
0.0
 11
78.9740218793
 21
489.0479310345
 31
0.0
  0
LINE
  5
161
330
1F
100
AcDbEntity
  8
0
  6
Continuous
 62
     7
370
    15
100
AcDbLine
 10
76.7869947001
 20
493.6979310345
 30
0.0
 11
76.7869947001
 21
489.4945130219
 31
0.0
  0
SPLINE
  5
162
330
1F
100
AcDbEntity
  8
0
  6
Continuous
 62
     7
370
    15
100
AcDbSpline
210
0.0
220
0.0
230
1.0
 70
     8
 71
     3
 72
     9
 73
     5
 74
     0
 42
0.00000001
 43
0.00000001
 12
1.0
 22
0.0
 32
0.0
 13
1.0
 23
0.0
 33
0.0
 40
0.0
 40
0.0
 40
0.0
 40
0.0
 40
0.2575513451038114
 40
1.0
 40
1.0
 40
1.0
 40
1.0
 10
86.61162282876222
 20
489.4945130218705
 30
0.0
 10
86.65681066627079
 20
489.4270977990956
 30
0.0
 10
86.83226242906528
 20
489.1653433021517
 30
0.0
 10
87.0145461967023
 20
489.0979598143591
 30
0.0
 10
87.14988253479395
 20
489.0479310344853
 30
0.0
  0
LINE
  5
163
330
1F
100
AcDbEntity
  8
0
  6
Continuous
 62
     7
370
    15
100
AcDbLine
 10
87.1498825348
 20
489.0479310345
 30
0.0
 11
83.8863359436
 21
489.0479310345
 31
0.0
  0
SPLINE
  5
164
330
1F
100
AcDbEntity
  8
0
  6
Continuous
 62
     7
370
    15
100
AcDbSpline
210
0.0
220
0.0
230
1.0
 70
     8
 71
     3
 72
     9
 73
     5
 74
     0
 42
0.00000001
 43
0.00000001
 12
1.0
 22
0.0
 32
0.0
 13
1.0
 23
0.0
 33
0.0
 40
0.0
 40
0.0
 40
0.0
 40
0.0
 40
0.2575513451038101
 40
1.0
 40
1.0
 40
1.0
 40
1.0
 10
76.78699470010758
 20
489.4945130218705
 30
0.0
 10
76.83218253761615
 20
489.4270977990956
 30
0.0
 10
77.00763430041042
 20
489.1653433021517
 30
0.0
 10
77.18991806804759
 20
489.0979598143591
 30
0.0
 10
77.32525440613924
 20
489.0479310344853
 30
0.0
  0
LINE
  5
165
330
1F
100
AcDbEntity
  8
0
  6
Continuous
 62
     7
370
    15
100
AcDbLine
 10
78.9740218793
 20
489.0479310345
 30
0.0
 11
77.2455912579
 21
489.0479310345
 31
0.0
  0
LINE
  5
166
330
1F
100
AcDbEntity
  8
0
  6
Continuous
 62
     7
370
    15
100
AcDbLine
 10
87.6881422408
 20
493.6979310345
 30
0.0
 11
87.6881422408
 21
489.4945130219
 31
0.0
  0
SPLINE
  5
167
330
1F
100
AcDbEntity
  8
0
  6
Continuous
 62
     7
370
    15
100
AcDbSpline
210
0.0
220
0.0
230
1.0
 70
     8
 71
     3
 72
     9
 73
     5
 74
     0
 42
0.00000001
 43
0.00000001
 12
1.0
 22
0.0
 32
0.0
 13
1.0
 23
0.0
 33
0.0
 40
0.0
 40
0.0
 40
0.0
 40
0.0
 40
0.2686336050555635
 40
1.0
 40
1.0
 40
1.0
 40
1.0
 10
87.14988253479395
 20
489.0479310344853
 30
0.0
 10
87.19882540356888
 20
489.0545599870698
 30
0.0
 10
87.38101731051545
 20
489.079236544506
 30
0.0
 10
87.55840606612897
 20
489.3190913081061
 30
0.0
 10
87.68814224082561
 20
489.4945130218705
 30
0.0
  0
LINE
  5
168
330
1F
100
AcDbEntity
  8
0
  6
Continuous
 62
     7
370
    15
100
AcDbLine
 10
87.6881422408
 20
489.4945130219
 30
0.0
 11
85.5011150617
 21
489.0479310345
 31
0.0
  0
LINE
  5
169
330
1F
100
AcDbEntity
  8
0
  6
CENTERX2
 62
     8
370
     0
100
AcDbLine
 10
76.1964840164
 20
772.3979310345
 30
0.0
 11
76.1964840164
 21
758.8979310345
 31
0.0
  0
LINE
  5
16A
330
1F
100
AcDbEntity
  8
0
  6
CENTERX2
 62
     8
370
     0
100
AcDbLine
 10
852.7122870963
 20
490.6979310345
 30
0.0
 11
852.7122870963
 21
494.8979310345
 31
0.0
  0
LINE
  5
16B
330
1F
100
AcDbEntity
  8
0
  6
CENTERX2
 62
     8
370
     0
100
AcDbLine
 10
904.7122870963
 20
490.6979310345
 30
0.0
 11
904.7122870963
 21
494.8979310345
 31
0.0
  0
LINE
  5
16C
330
1F
100
AcDbEntity
  8
0
  6
CENTERX2
 62
     8
370
     0
100
AcDbLine
 10
82.2375684705
 20
475.0479310345
 30
0.0
 11
82.2375684705
 21
489.7479310345
 31
0.0
  0
LINE
  5
16D
330
1F
100
AcDbEntity
  8
0
  6
CENTERX2
 62
     8
370
     0
100
AcDbLine
 10
757.7375684705
 20
494.9979310345
 30
0.0
 11
757.7375684705
 21
397.9979310345
 31
0.0
  0
LINE
  5
16E
330
1F
100
AcDbEntity
  8
0
  6
CENTERX2
 62
     8
370
     0
100
AcDbLine
 10
178.7375684705
 20
494.9979310345
 30
0.0
 11
178.7375684705
 21
397.9979310345
 31
0.0
  0
ENDSEC
  0
SECTION
  2
OBJECTS
  0
DICTIONARY
  5
C
330
0
100
AcDbDictionary
281
     1
  3
ACAD_GROUP
350
D
  3
ACAD_LAYOUT
350
1A
  3
ACAD_MLINESTYLE
350
17
  3
ACAD_PLOTSETTINGS
350
19
  3
ACAD_PLOTSTYLENAME
350
E
  0
DICTIONARY
  5
D
102
{ACAD_REACTORS
330
C
102
}
330
C
100
AcDbDictionary
281
     1
  0
DICTIONARY
  5
1A
102
{ACAD_REACTORS
330
C
102
}
330
C
100
AcDbDictionary
281
     1
  3
Layout1
350
1E
  3
Layout2
350
26
  3
Model
350
22
  0
DICTIONARY
  5
17
102
{ACAD_REACTORS
330
C
102
}
330
C
100
AcDbDictionary
281
     1
  3
Standard
350
18
  0
DICTIONARY
  5
19
102
{ACAD_REACTORS
330
C
102
}
330
C
100
AcDbDictionary
281
     1
  0
ACDBDICTIONARYWDFLT
  5
E
102
{ACAD_REACTORS
330
C
102
}
330
C
100
AcDbDictionary
281
     1
  3
Normal
350
F
100
AcDbDictionaryWithDefault
340
F
  0
LAYOUT
  5
1E
102
{ACAD_REACTORS
330
1A
102
}
330
1A
100
AcDbPlotSettings
  1

  2
none_device
  4

  6

 40
0.0
 41
0.0
 42
0.0
 43
0.0
 44
0.0
 45
0.0
 46
0.0
 47
0.0
 48
0.0
 49
0.0
140
0.0
141
0.0
142
1.0
143
1.0
 70
   688
 72
     0
 73
     0
 74
     5
  7

 75
    16
147
1.0
148
0.0
149
0.0
100
AcDbLayout
  1
Layout1
 70
     1
 71
     1
 10
0.0
 20
0.0
 11
420.0
 21
297.0
 12
0.0
 22
0.0
 32
0.0
 14
1.0000000000E+20
 24
1.0000000000E+20
 34
1.0000000000E+20
 15
-1.0000000000E+20
 25
-1.0000000000E+20
 35
-1.0000000000E+20
146
0.0
 13
0.0
 23
0.0
 33
0.0
 16
1.0
 26
0.0
 36
0.0
 17
0.0
 27
1.0
 37
0.0
 76
     0
330
1B
  0
LAYOUT
  5
26
102
{ACAD_REACTORS
330
1A
102
}
330
1A
100
AcDbPlotSettings
  1

  2
none_device
  4

  6

 40
0.0
 41
0.0
 42
0.0
 43
0.0
 44
0.0
 45
0.0
 46
0.0
 47
0.0
 48
0.0
 49
0.0
140
0.0
141
0.0
142
1.0
143
1.0
 70
   688
 72
     0
 73
     0
 74
     5
  7

 75
    16
147
1.0
148
0.0
149
0.0
100
AcDbLayout
  1
Layout2
 70
     1
 71
     2
 10
0.0
 20
0.0
 11
0.0
 21
0.0
 12
0.0
 22
0.0
 32
0.0
 14
0.0
 24
0.0
 34
0.0
 15
0.0
 25
0.0
 35
0.0
146
0.0
 13
0.0
 23
0.0
 33
0.0
 16
1.0
 26
0.0
 36
0.0
 17
0.0
 27
1.0
 37
0.0
 76
     0
330
23
  0
LAYOUT
  5
22
102
{ACAD_REACTORS
330
1A
102
}
330
1A
100
AcDbPlotSettings
  1

  2
none_device
  4

  6

 40
0.0
 41
0.0
 42
0.0
 43
0.0
 44
0.0
 45
0.0
 46
0.0
 47
0.0
 48
0.0
 49
0.0
140
0.0
141
0.0
142
1.0
143
1.0
 70
  1712
 72
     0
 73
     0
 74
     0
  7

 75
     0
147
1.0
148
0.0
149
0.0
100
AcDbLayout
  1
Model
 70
     1
 71
     0
 10
0.0
 20
0.0
 11
1000.0
 21
1000.0
 12
0.0
 22
0.0
 32
0.0
 14
0.0
 24
0.0
 34
0.0
 15
1000.0
 25
1000.0
 35
0.0
146
0.0
 13
0.0
 23
0.0
 33
0.0
 16
1.0
 26
0.0
 36
0.0
 17
0.0
 27
1.0
 37
0.0
 76
     0
330
1F
331
29
  0
MLINESTYLE
  5
18
102
{ACAD_REACTORS
330
17
102
}
330
17
100
AcDbMlineStyle
  2
Standard
 70
     0
  3

 62
   256
 51
90.0
 52
90.0
 71
     2
 49
0.5
 62
   256
  6
BYLAYER
 49
-0.5
 62
   256
  6
BYLAYER
  0
ACDBPLACEHOLDER
  5
F
102
{ACAD_REACTORS
330
E
102
}
330
E
  0
ENDSEC
  0
EOF
