  0
SECTION
  2
HEADER
  9
$ACADVER
  1
AC1015
  9
$ACADMAINTVER
 70
     6
  9
$DWGCODEPAGE
  3
ANSI_1252
  9
$INSBASE
 10
0.0
 20
0.0
 30
0.0
  9
$EXTMIN
 10
0.0
 20
0.0
 30
0.0
  9
$EXTMAX
 10
1000.0
 20
1000.0
 30
0.0
  9
$LIMMIN
 10
0.0
 20
0.0
  9
$LIMMAX
 10
1000.0
 20
1000.0
  9
$ORTHOMODE
 70
     0
  9
$REGENMODE
 70
     1
  9
$FILLMODE
 70
     1
  9
$QTEXTMODE
 70
     0
  9
$MIRRTEXT
 70
     1
  9
$LTSCALE
 40
1.0
  9
$ATTMODE
 70
     1
  9
$TEXTSIZE
 40
3.5
  9
$TRACEWID
 40
1.0
  9
$TEXTSTYLE
  7
Standard
  9
$CLAYER
  8
0
  9
$CELTYPE
  6
ByLayer
  9
$CECOLOR
 62
   256
  9
$CELTSCALE
 40
1.0
  9
$DISPSILH
 70
     0
  9
$DIMSCALE
 40
1.0
  9
$DIMASZ
 40
3.302
  9
$DIMEXO
 40
1.0
  9
$DIMDLI
 40
3.75
  9
$DIMRND
 40
0.0
  9
$DIMDLE
 40
0.0
  9
$DIMEXE
 40
1.0
  9
$DIMTP
 40
0.0
  9
$DIMTM
 40
0.0
  9
$DIMTXT
 40
3.5
  9
$DIMCEN
 40
2.5
  9
$DIMTSZ
 40
0.0
  9
$DIMTOL
 70
     0
  9
$DIMLIM
 70
     0
  9
$DIMTIH
 70
     1
  9
$DIMTOH
 70
     1
  9
$DIMSE1
 70
     0
  9
$DIMSE2
 70
     0
  9
$DIMTAD
 70
     1
  9
$DIMZIN
 70
     0
  9
$DIMBLK
  1

  9
$DIMASO
 70
     1
  9
$DIMSHO
 70
     1
  9
$DIMPOST
  1

  9
$DIMAPOST
  1

  9
$DIMALT
 70
     0
  9
$DIMALTD
 70
     3
  9
$DIMALTF
 40
0.0393700787
  9
$DIMLFAC
 40
1.0
  9
$DIMTOFL
 70
     1
  9
$DIMTVP
 40
0.0
  9
$DIMTIX
 70
     0
  9
$DIMSOXD
 70
     0
  9
$DIMSAH
 70
     0
  9
$DIMBLK1
  1

  9
$DIMBLK2
  1

  9
$DIMSTYLE
  2
ISO-25
  9
$DIMCLRD
 70
     0
  9
$DIMCLRE
 70
     0
  9
$DIMCLRT
 70
     0
  9
$DIMTFAC
 40
1.0
  9
$DIMGAP
 40
1.524
  9
$DIMJUST
 70
     0
  9
$DIMSD1
 70
     0
  9
$DIMSD2
 70
     0
  9
$DIMTOLJ
 70
     0
  9
$DIMTZIN
 70
     0
  9
$DIMALTZ
 70
     0
  9
$DIMALTTZ
 70
     0
  9
$DIMUPT
 70
     0
  9
$DIMDEC
 70
     1
  9
$DIMTDEC
 70
     1
  9
$DIMALTU
 70
     2
  9
$DIMALTTD
 70
     3
  9
$DIMTXSTY
  7
Standard
  9
$DIMAUNIT
 70
     0
  9
$DIMADEC
 70
     1
  9
$DIMALTRND
 40
0.0
  9
$DIMAZIN
 70
     0
  9
$DIMDSEP
 70
    44
  9
$DIMATFIT
 70
     3
  9
$DIMFRAC
 70
     0
  9
$DIMLDRBLK
  1

  9
$DIMLUNIT
 70
     2
  9
$DIMLWD
 70
    -2
  9
$DIMLWE
 70
    -2
  9
$DIMTMOVE
 70
     0
  9
$LUNITS
 70
     2
  9
$LUPREC
 70
     1
  9
$SKETCHINC
 40
1.0
  9
$FILLETRAD
 40
10.0
  9
$AUNITS
 70
     0
  9
$AUPREC
 70
     1
  9
$MENU
  1
.
  9
$ELEVATION
 40
0.0
  9
$PELEVATION
 40
0.0
  9
$THICKNESS
 40
0.0
  9
$LIMCHECK
 70
     0
  9
$CHAMFERA
 40
10.0
  9
$CHAMFERB
 40
10.0
  9
$CHAMFERC
 40
20.0
  9
$CHAMFERD
 40
0.0
  9
$SKPOLY
 70
     0
  9
$TDCREATE
 40
2457071.712988114
  9
$TDUCREATE
 40
2457071.712988114
  9
$TDUPDATE
 40
2457071.712989919
  9
$TDUUPDATE
 40
2457071.712989919
  9
$TDINDWG
 40
0.0000000116
  9
$TDUSRTIMER
 40
0.0000000116
  9
$USRTIMER
 70
     1
  9
$ANGBASE
 50
0.0
  9
$ANGDIR
 70
     0
  9
$PDMODE
 70
     0
  9
$PDSIZE
 40
-1.0
  9
$PLINEWID
 40
0.0
  9
$SPLFRAME
 70
     0
  9
$SPLINETYPE
 70
     6
  9
$SPLINESEGS
 70
     8
  9
$HANDSEED
  5
23E
  9
$SURFTAB1
 70
     6
  9
$SURFTAB2
 70
     6
  9
$SURFTYPE
 70
     6
  9
$SURFU
 70
     6
  9
$SURFV
 70
     6
  9
$UCSBASE
  2

  9
$UCSNAME
  2

  9
$UCSORG
 10
0.0
 20
0.0
 30
0.0
  9
$UCSXDIR
 10
1.0
 20
0.0
 30
0.0
  9
$UCSYDIR
 10
0.0
 20
1.0
 30
0.0
  9
$UCSORTHOREF
  2

  9
$UCSORTHOVIEW
 70
     0
  9
$UCSORGTOP
 10
0.0
 20
0.0
 30
0.0
  9
$UCSORGBOTTOM
 10
0.0
 20
0.0
 30
0.0
  9
$UCSORGLEFT
 10
0.0
 20
0.0
 30
0.0
  9
$UCSORGRIGHT
 10
0.0
 20
0.0
 30
0.0
  9
$UCSORGFRONT
 10
0.0
 20
0.0
 30
0.0
  9
$UCSORGBACK
 10
0.0
 20
0.0
 30
0.0
  9
$PUCSBASE
  2

  9
$PUCSNAME
  2

  9
$PUCSORG
 10
0.0
 20
0.0
 30
0.0
  9
$PUCSXDIR
 10
1.0
 20
0.0
 30
0.0
  9
$PUCSYDIR
 10
0.0
 20
1.0
 30
0.0
  9
$PUCSORTHOREF
  2

  9
$PUCSORTHOVIEW
 70
     0
  9
$PUCSORGTOP
 10
0.0
 20
0.0
 30
0.0
  9
$PUCSORGBOTTOM
 10
0.0
 20
0.0
 30
0.0
  9
$PUCSORGLEFT
 10
0.0
 20
0.0
 30
0.0
  9
$PUCSORGRIGHT
 10
0.0
 20
0.0
 30
0.0
  9
$PUCSORGFRONT
 10
0.0
 20
0.0
 30
0.0
  9
$PUCSORGBACK
 10
0.0
 20
0.0
 30
0.0
  9
$USERI1
 70
     0
  9
$USERI2
 70
     0
  9
$USERI3
 70
     0
  9
$USERI4
 70
     0
  9
$USERI5
 70
     0
  9
$USERR1
 40
0.0
  9
$USERR2
 40
0.0
  9
$USERR3
 40
0.0
  9
$USERR4
 40
0.0
  9
$USERR5
 40
0.0
  9
$WORLDVIEW
 70
     1
  9
$SHADEDGE
 70
     3
  9
$SHADEDIF
 70
    70
  9
$TILEMODE
 70
     1
  9
$MAXACTVP
 70
    64
  9
$PINSBASE
 10
0.0
 20
0.0
 30
0.0
  9
$PLIMCHECK
 70
     0
  9
$PEXTMIN
 10
1.0000000000E+20
 20
1.0000000000E+20
 30
1.0000000000E+20
  9
$PEXTMAX
 10
-1.0000000000E+20
 20
-1.0000000000E+20
 30
-1.0000000000E+20
  9
$PLIMMIN
 10
0.0
 20
0.0
  9
$PLIMMAX
 10
420.0
 20
297.0
  9
$UNITMODE
 70
     0
  9
$VISRETAIN
 70
     1
  9
$PLINEGEN
 70
     0
  9
$PSLTSCALE
 70
     1
  9
$TREEDEPTH
 70
  3020
  9
$CMLSTYLE
  2
Standard
  9
$CMLJUST
 70
     0
  9
$CMLSCALE
 40
20.0
  9
$PROXYGRAPHICS
 70
     1
  9
$MEASUREMENT
 70
     1
  9
$CELWEIGHT
370
    -1
  9
$ENDCAPS
280
     0
  9
$JOINSTYLE
280
     0
  9
$LWDISPLAY
290
     1
  9
$INSUNITS
 70
     4
  9
$HYPERLINKBASE
  1

  9
$STYLESHEET
  1

  9
$XEDIT
290
     1
  9
$CEPSNTYPE
380
     0
  9
$PSTYLEMODE
290
     1
  9
$FINGERPRINTGUID
  2
{B3CBF7D5-8C3E-4317-B192-27FBCE304EC7}
  9
$VERSIONGUID
  2
{FAEB1C32-E019-11D5-929B-00C0DF256EC4}
  9
$EXTNAMES
290
     1
  9
$PSVPSCALE
 40
0.0
  9
$OLESTARTUP
290
     0
  0
ENDSEC
  0
SECTION
  2
CLASSES
  0
CLASS
  1
ACDBDICTIONARYWDFLT
  2
AcDbDictionaryWithDefault
  3
ObjectDBX Classes
 90
        0
280
     0
281
     0
  0
CLASS
  1
VISUALSTYLE
  2
AcDbVisualStyle
  3
ObjectDBX Classes
 90
     4095
280
     0
281
     0
  0
CLASS
  1
MATERIAL
  2
AcDbMaterial
  3
ObjectDBX Classes
 90
     1153
280
     0
281
     0
  0
CLASS
  1
ACDBPLACEHOLDER
  2
AcDbPlaceHolder
  3
ObjectDBX Classes
 90
        0
280
     0
281
     0
  0
CLASS
  1
LAYOUT
  2
AcDbLayout
  3
ObjectDBX Classes
 90
        0
280
     0
281
     0
  0
ENDSEC
  0
SECTION
  2
TABLES
  0
TABLE
  2
VPORT
  5
8
330
0
100
AcDbSymbolTable
 70
     1
  0
VPORT
  5
29
330
8
100
AcDbSymbolTableRecord
100
AcDbViewportTableRecord
  2
*Active
 70
     0
 10
0.0
 20
0.0
 11
1.0
 21
1.0
 12
500.0
 22
500.0
 13
0.0
 23
0.0
 14
10.0
 24
10.0
 15
10.0
 25
10.0
 16
0.0
 26
0.0
 36
1.0
 17
0.0
 27
0.0
 37
0.0
 40
1000.0
 41
1.0
 42
50.0
 43
0.0
 44
0.0
 50
0.0
 51
0.0
 71
     0
 72
  2000
 73
     1
 74
     3
 75
     0
 76
     0
 77
     0
 78
     0
281
     0
 65
     1
110
0.0
120
0.0
130
0.0
111
1.0
121
0.0
131
0.0
112
0.0
122
1.0
132
0.0
 79
     0
146
0.0
  0
ENDTAB
  0
TABLE
  2
LTYPE
  5
5
330
0
100
AcDbSymbolTable
 70
     6
  0
LTYPE
  5
14
330
5
100
AcDbSymbolTableRecord
100
AcDbLinetypeTableRecord
  2
ByBlock
 70
     0
  3

 72
    65
 73
     0
 40
0.0
  0
LTYPE
  5
15
330
5
100
AcDbSymbolTableRecord
100
AcDbLinetypeTableRecord
  2
ByLayer
 70
     0
  3

 72
    65
 73
     0
 40
0.0
  0
LTYPE
  5
16
330
5
100
AcDbSymbolTableRecord
100
AcDbLinetypeTableRecord
  2
Continuous
 70
     0
  3
Solid line
 72
    65
 73
     0
 40
0.0
  0
LTYPE
  5
3F
330
5
100
AcDbSymbolTableRecord
100
AcDbLinetypeTableRecord
  2
HIDDEN
 70
     0
  3
Hidden __ __ __ __ __ __ __ __ __ __ __ __ __ __
 72
    65
 73
     2
 40
1.905
 49
1.27
 74
     0
 49
-0.635
 74
     0
  0
LTYPE
  5
40
330
5
100
AcDbSymbolTableRecord
100
AcDbLinetypeTableRecord
  2
PHANTOM
 70
     0
  3
Phantom ______  __  __  ______  __  __  ______
 72
    65
 73
     6
 40
12.7
 49
6.35
 74
     0
 49
-1.27
 74
     0
 49
1.27
 74
     0
 49
-1.27
 74
     0
 49
1.27
 74
     0
 49
-1.27
 74
     0
  0
LTYPE
  5
41
330
5
100
AcDbSymbolTableRecord
100
AcDbLinetypeTableRecord
  2
CENTER
 70
     0
  3
Center ____ _ ____ _ ____ _ ____ _ ____ _ ____
 72
    65
 73
     4
 40
10.16
 49
6.35
 74
     0
 49
-1.27
 74
     0
 49
1.27
 74
     0
 49
-1.27
 74
     0
  0
LTYPE
  5
42
330
5
100
AcDbSymbolTableRecord
100
AcDbLinetypeTableRecord
  2
CENTERX2
 70
     0
  3
Center (2x) ________  __  ________  __  _____
 72
    65
 73
     4
 40
20.32
 49
12.7
 74
     0
 49
-2.54
 74
     0
 49
2.54
 74
     0
 49
-2.54
 74
     0
  0
LTYPE
  5
43
330
5
100
AcDbSymbolTableRecord
100
AcDbLinetypeTableRecord
  2
DOT2
 70
     0
  3
Dot (.5x) ........................................
 72
    65
 73
     2
 40
0.635
 49
0.0
 74
     0
 49
-0.635
 74
     0
  0
ENDTAB
  0
TABLE
  2
LAYER
  5
2
330
0
100
AcDbSymbolTable
 70
     1
  0
LAYER
  5
10
330
2
100
AcDbSymbolTableRecord
100
AcDbLayerTableRecord
  2
0
 70
     0
 62
     7
  6
Continuous
370
    -3
390
F
  0
ENDTAB
  0
TABLE
  2
STYLE
  5
3
330
0
100
AcDbSymbolTable
 70
     1
  0
STYLE
  5
11
330
3
100
AcDbSymbolTableRecord
100
AcDbTextStyleTableRecord
  2
Standard
 70
     0
 40
0.0
 41
1.0
 50
0.0
 71
     0
 42
3.5
  3
txt
  4

  0
ENDTAB
  0
TABLE
  2
VIEW
  5
6
330
0
100
AcDbSymbolTable
 70
     0
  0
ENDTAB
  0
TABLE
  2
UCS
  5
7
330
0
100
AcDbSymbolTable
 70
     0
  0
ENDTAB
  0
TABLE
  2
APPID
  5
9
330
0
100
AcDbSymbolTable
 70
     1
  0
APPID
  5
12
330
9
100
AcDbSymbolTableRecord
100
AcDbRegAppTableRecord
  2
ACAD
 70
     0
  0
ENDTAB
  0
TABLE
  2
DIMSTYLE
  5
A
330
0
100
AcDbSymbolTable
 70
     1
100
AcDbDimStyleTable
  0
DIMSTYLE
105
27
330
A
100
AcDbSymbolTableRecord
100
AcDbDimStyleTableRecord
  2
ISO-25
 70
     0
 41
2.5
 42
0.625
 43
3.75
 44
1.25
 73
     0
 74
     0
 77
     1
 78
     8
140
2.5
141
2.5
143
0.0393700787
147
0.625
171
     3
172
     1
178
     0
271
     2
272
     2
274
     3
278
    44
283
     0
284
     8
340
11
  0
ENDTAB
  0
TABLE
  2
BLOCK_RECORD
  5
1
330
0
100
AcDbSymbolTable
 70
     1
  0
BLOCK_RECORD
  5
1F
330
1
100
AcDbSymbolTableRecord
100
AcDbBlockTableRecord
  2
*Model_Space
340
22
  0
BLOCK_RECORD
  5
1B
330
1
100
AcDbSymbolTableRecord
100
AcDbBlockTableRecord
  2
*Paper_Space
340
1E
  0
BLOCK_RECORD
  5
23
330
1
100
AcDbSymbolTableRecord
100
AcDbBlockTableRecord
  2
*Paper_Space0
340
26
  0
ENDTAB
  0
ENDSEC
  0
SECTION
  2
BLOCKS
  0
BLOCK
  5
20
330
1F
100
AcDbEntity
  8
0
100
AcDbBlockBegin
  2
*Model_Space
 70
     0
 10
0.0
 20
0.0
 30
0.0
  3
*Model_Space
  1

  0
ENDBLK
  5
21
330
1F
100
AcDbEntity
  8
0
100
AcDbBlockEnd
  0
BLOCK
  5
1C
330
1B
100
AcDbEntity
 67
     1
  8
0
100
AcDbBlockBegin
  2
*Paper_Space
 70
     0
 10
0.0
 20
0.0
 30
0.0
  3
*Paper_Space
  1

  0
ENDBLK
  5
1D
330
1B
100
AcDbEntity
 67
     1
  8
0
100
AcDbBlockEnd
  0
BLOCK
  5
24
330
23
100
AcDbEntity
  8
0
100
AcDbBlockBegin
  2
*Paper_Space0
 70
     0
 10
0.0
 20
0.0
 30
0.0
  3
*Paper_Space0
  1

  0
ENDBLK
  5
25
330
23
100
AcDbEntity
  8
0
100
AcDbBlockEnd
  0
ENDSEC
  0
SECTION
  2
ENTITIES
  0
LINE
  5
44
330
1F
100
AcDbEntity
  8
0
  6
Continuous
 62
     7
370
    15
100
AcDbLine
 10
922.251705746
 20
548.2031910233
 30
0.0
 11
929.6243105694
 21
556.0546047888
 31
0.0
  0
LINE
  5
45
330
1F
100
AcDbEntity
  8
0
  6
Continuous
 62
     7
370
    15
100
AcDbLine
 10
905.5350696502
 20
607.7141486499
 30
0.0
 11
894.7815187328
 21
607.1131971807
 31
0.0
  0
LINE
  5
46
330
1F
100
AcDbEntity
  8
0
  6
Continuous
 62
     7
370
    15
100
AcDbLine
 10
906.0350242341
 20
607.7208876393
 30
0.0
 11
905.5350696502
 21
607.7141486499
 31
0.0
  0
LINE
  5
47
330
1F
100
AcDbEntity
  8
0
  6
Continuous
 62
     7
370
    15
100
AcDbLine
 10
929.6243105694
 20
556.0546047888
 30
0.0
 11
943.5246466648
 21
572.1740734639
 31
0.0
  0
ARC
  5
48
330
1F
100
AcDbEntity
  8
0
  6
Continuous
 62
     7
370
    15
100
AcDbCircle
 10
942.7673352809
 20
572.8271274186
 30
0.0
 40
0.9999999999999665
100
AcDbArc
 50
319.2277453179
 51
25.0
  0
LINE
  5
49
330
1F
100
AcDbEntity
  8
0
  6
Continuous
 62
     7
370
    15
100
AcDbLine
 10
922.9540380717
 20
532.973065308
 30
0.0
 11
922.9327972564
 21
532.9631605531
 31
0.0
  0
LINE
  5
4A
330
1F
100
AcDbEntity
  8
0
  6
Continuous
 62
     7
370
    15
100
AcDbLine
 10
924.6232703033
 20
529.337929405
 30
0.0
 11
924.6445111187
 21
529.3478341598
 31
0.0
  0
LINE
  5
4B
330
1F
100
AcDbEntity
  8
0
  6
Continuous
 62
     7
370
    15
100
AcDbLine
 10
906.0493076021
 20
569.2253767895
 30
0.0
 11
906.0280667867
 21
569.2154720346
 31
0.0
  0
LINE
  5
4C
330
1F
100
AcDbEntity
  8
0
  6
Continuous
 62
     7
370
    15
100
AcDbLine
 10
907.7185398337
 20
565.5902408864
 30
0.0
 11
907.739780649
 21
565.6001456413
 31
0.0
  0
LINE
  5
4D
330
1F
100
AcDbEntity
  8
0
  6
Continuous
 62
     7
370
    15
100
AcDbLine
 10
931.4552603174
 20
516.6350966359
 30
0.0
 11
931.8973399686
 21
516.870154556
 31
0.0
  0
LINE
  5
4E
330
1F
100
AcDbEntity
  8
0
  6
Continuous
 62
     7
370
    15
100
AcDbLine
 10
926.701110726
 20
524.9374420692
 30
0.0
 11
926.6800427988
 21
524.9271665546
 31
0.0
  0
LINE
  5
4F
330
1F
100
AcDbEntity
  8
0
  6
Continuous
 62
     7
370
    15
100
AcDbLine
 10
928.8212480816
 20
520.3353370072
 30
0.0
 11
928.8426617851
 21
520.3448710023
 31
0.0
  0
LINE
  5
50
330
1F
100
AcDbEntity
  8
0
  6
Continuous
 62
     7
370
    15
100
AcDbLine
 10
885.2845210754
 20
613.7556051988
 30
0.0
 11
885.2634531482
 21
613.7453296842
 31
0.0
  0
LINE
  5
51
330
1F
100
AcDbEntity
  8
0
  6
Continuous
 62
     7
370
    15
100
AcDbLine
 10
887.4046584311
 20
609.1535001368
 30
0.0
 11
887.4260721345
 21
609.1630341319
 31
0.0
  0
LINE
  5
52
330
1F
100
AcDbEntity
  8
0
  6
Continuous
 62
     7
370
    15
100
AcDbLine
 10
913.202121682
 20
553.8861174939
 30
0.0
 11
913.1808808667
 21
553.876212739
 31
0.0
  0
LINE
  5
53
330
1F
100
AcDbEntity
  8
0
  6
Continuous
 62
     7
370
    15
100
AcDbLine
 10
916.5406960475
 20
546.6710658321
 30
0.0
 11
916.5619368629
 21
546.6809705869
 31
0.0
  0
ARC
  5
54
330
1F
100
AcDbEntity
  8
0
  6
Continuous
 62
     7
370
    15
100
AcDbCircle
 10
778.4097100307
 20
359.1344911578
 30
0.0
 40
2.0
100
AcDbArc
 50
270.0
 51
0.0
  0
ARC
  5
55
330
1F
100
AcDbEntity
  8
0
  6
Continuous
 62
     7
370
    15
100
AcDbCircle
 10
725.4097100307
 20
359.1344911578
 30
0.0
 40
2.0
100
AcDbArc
 50
180.0
 51
270.0
  0
LINE
  5
56
330
1F
100
AcDbEntity
  8
0
  6
Continuous
 62
     7
370
    15
100
AcDbLine
 10
780.4097100307
 20
359.1344911578
 30
0.0
 11
780.4097100307
 21
363.1344911578
 31
0.0
  0
LINE
  5
57
330
1F
100
AcDbEntity
  8
0
  6
Continuous
 62
     7
370
    15
100
AcDbLine
 10
723.4097100307
 20
363.1344911578
 30
0.0
 11
723.4097100307
 21
359.1344911578
 31
0.0
  0
LINE
  5
58
330
1F
100
AcDbEntity
  8
0
  6
Continuous
 62
     7
370
    15
100
AcDbLine
 10
201.4097100307
 20
359.1344911578
 30
0.0
 11
201.4097100307
 21
363.1344911578
 31
0.0
  0
LINE
  5
59
330
1F
100
AcDbEntity
  8
0
  6
Continuous
 62
     7
370
    15
100
AcDbLine
 10
144.4097100307
 20
363.1344911578
 30
0.0
 11
144.4097100307
 21
359.1344911578
 31
0.0
  0
ARC
  5
5A
330
1F
100
AcDbEntity
  8
0
  6
Continuous
 62
     7
370
    15
100
AcDbCircle
 10
199.4097100307
 20
359.1344911578
 30
0.0
 40
2.0
100
AcDbArc
 50
270.0
 51
0.0
  0
ARC
  5
5B
330
1F
100
AcDbEntity
  8
0
  6
Continuous
 62
     7
370
    15
100
AcDbCircle
 10
146.4097100307
 20
359.1344911578
 30
0.0
 40
2.0
100
AcDbArc
 50
180.0
 51
270.0
  0
LINE
  5
5C
330
1F
100
AcDbEntity
  8
0
  6
Continuous
 62
     7
370
    15
100
AcDbLine
 10
780.2097100307
 20
363.1344911578
 30
0.0
 11
780.2097100307
 21
392.1344911578
 31
0.0
  0
LINE
  5
5D
330
1F
100
AcDbEntity
  8
0
  6
Continuous
 62
     7
370
    15
100
AcDbLine
 10
723.6097100307
 20
392.1344911578
 30
0.0
 11
723.6097100307
 21
363.1344911578
 31
0.0
  0
LINE
  5
5E
330
1F
100
AcDbEntity
  8
0
  6
Continuous
 62
     7
370
    15
100
AcDbLine
 10
201.2097100307
 20
363.1344911578
 30
0.0
 11
201.2097100307
 21
392.1344911578
 31
0.0
  0
LINE
  5
5F
330
1F
100
AcDbEntity
  8
0
  6
Continuous
 62
     7
370
    15
100
AcDbLine
 10
144.6097100307
 20
392.1344911578
 30
0.0
 11
144.6097100307
 21
363.1344911578
 31
0.0
  0
ARC
  5
60
330
1F
100
AcDbEntity
  8
0
  6
Continuous
 62
     7
370
    15
100
AcDbCircle
 10
785.3097100307
 20
453.6344911578
 30
0.0
 40
1.5
100
AcDbArc
 50
90.0
 51
180.0
  0
ARC
  5
61
330
1F
100
AcDbEntity
  8
0
  6
Continuous
 62
     7
370
    15
100
AcDbCircle
 10
718.5097100307
 20
453.6344911578
 30
0.0
 40
1.5
100
AcDbArc
 50
0.0
 51
90.0
  0
ARC
  5
62
330
1F
100
AcDbEntity
  8
0
  6
Continuous
 62
     7
370
    15
100
AcDbCircle
 10
779.1097100307
 20
398.1670571035
 30
0.0
 40
4.700000000000045
100
AcDbArc
 50
350.5402980318
 51
0.0
  0
ARC
  5
63
330
1F
100
AcDbEntity
  8
0
  6
Continuous
 62
     7
370
    15
100
AcDbCircle
 10
724.7097100307
 20
398.1670571035
 30
0.0
 40
4.700000000000122
100
AcDbArc
 50
180.0
 51
189.4597019682
  0
LINE
  5
64
330
1F
100
AcDbEntity
  8
0
  6
Continuous
 62
     7
370
    15
100
AcDbLine
 10
783.8097100307
 20
398.1670571035
 30
0.0
 11
783.8097100307
 21
453.6344911578
 31
0.0
  0
LINE
  5
65
330
1F
100
AcDbEntity
  8
0
  6
Continuous
 62
     7
370
    15
100
AcDbLine
 10
720.0097100307
 20
453.6344911578
 30
0.0
 11
720.0097100307
 21
398.1670571035
 31
0.0
  0
LINE
  5
66
330
1F
100
AcDbEntity
  8
0
  6
Continuous
 62
     7
370
    15
100
AcDbLine
 10
720.0736232577
 20
397.394593879
 30
0.0
 11
720.9500598104
 21
392.1344911578
 31
0.0
  0
LINE
  5
67
330
1F
100
AcDbEntity
  8
0
  6
Continuous
 62
     7
370
    15
100
AcDbLine
 10
782.869360251
 20
392.1344911578
 30
0.0
 11
783.7457968037
 21
397.394593879
 31
0.0
  0
ARC
  5
68
330
1F
100
AcDbEntity
  8
0
  6
Continuous
 62
     7
370
    15
100
AcDbCircle
 10
206.3097100307
 20
453.6344911578
 30
0.0
 40
1.5
100
AcDbArc
 50
90.0
 51
180.0
  0
ARC
  5
69
330
1F
100
AcDbEntity
  8
0
  6
Continuous
 62
     7
370
    15
100
AcDbCircle
 10
139.5097100307
 20
453.6344911578
 30
0.0
 40
1.5
100
AcDbArc
 50
0.0
 51
90.0
  0
LINE
  5
6A
330
1F
100
AcDbEntity
  8
0
  6
Continuous
 62
     7
370
    15
100
AcDbLine
 10
204.8097100307
 20
398.1670571035
 30
0.0
 11
204.8097100307
 21
453.6344911578
 31
0.0
  0
LINE
  5
6B
330
1F
100
AcDbEntity
  8
0
  6
Continuous
 62
     7
370
    15
100
AcDbLine
 10
141.0097100307
 20
453.6344911578
 30
0.0
 11
141.0097100307
 21
398.1670571035
 31
0.0
  0
ARC
  5
6C
330
1F
100
AcDbEntity
  8
0
  6
Continuous
 62
     7
370
    15
100
AcDbCircle
 10
200.1097100307
 20
398.1670571035
 30
0.0
 40
4.699999999999989
100
AcDbArc
 50
350.5402980318
 51
0.0
  0
ARC
  5
6D
330
1F
100
AcDbEntity
  8
0
  6
Continuous
 62
     7
370
    15
100
AcDbCircle
 10
145.7097100307
 20
398.1670571035
 30
0.0
 40
4.70000000000001
100
AcDbArc
 50
180.0
 51
189.4597019682
  0
LINE
  5
6E
330
1F
100
AcDbEntity
  8
0
  6
Continuous
 62
     7
370
    15
100
AcDbLine
 10
141.0736232577
 20
397.394593879
 30
0.0
 11
141.9500598104
 21
392.1344911578
 31
0.0
  0
LINE
  5
6F
330
1F
100
AcDbEntity
  8
0
  6
Continuous
 62
     7
370
    15
100
AcDbLine
 10
203.869360251
 20
392.1344911578
 30
0.0
 11
204.7457968037
 21
397.394593879
 31
0.0
  0
LINE
  5
70
330
1F
100
AcDbEntity
  8
0
  6
Continuous
 62
     7
370
    15
100
AcDbLine
 10
825.9766797527
 20
450.9344911578
 30
0.0
 11
829.6427403087
 21
450.9344911578
 31
0.0
  0
LINE
  5
71
330
1F
100
AcDbEntity
  8
0
  6
Continuous
 62
     7
370
    15
100
AcDbLine
 10
826.6435196517
 20
451.9344911578
 30
0.0
 11
828.9759004097
 21
451.9344911578
 31
0.0
  0
LINE
  5
72
330
1F
100
AcDbEntity
  8
0
  6
Continuous
 62
     7
370
    15
100
AcDbLine
 10
843.6597100307
 20
452.6844911578
 30
0.0
 11
843.6597100307
 21
448.1844911578
 31
0.0
  0
CIRCLE
  5
73
330
1F
100
AcDbEntity
  8
0
  6
Continuous
 62
     7
370
    15
100
AcDbCircle
 10
827.8097100307
 20
450.4344911578
 30
0.0
 40
1.89999999999992
  0
SPLINE
  5
74
330
1F
100
AcDbEntity
  8
0
  6
Continuous
 62
     7
370
    15
100
AcDbSpline
210
0.0
220
0.0
230
1.0
 70
     8
 71
     3
 72
    12
 73
     8
 74
     0
 42
0.00000001
 43
0.00000001
 12
1.0
 22
0.0
 32
0.0
 13
1.0
 23
0.0
 33
0.0
 40
0.0
 40
0.0
 40
0.0
 40
0.0
 40
0.1928947997657549
 40
0.4122214398807564
 40
0.6315552886408395
 40
0.850889008377071
 40
1.0
 40
1.0
 40
1.0
 40
1.0
 10
843.6597100307006
 20
448.1844911578485
 30
0.0
 10
843.6142801800856
 20
447.9675528974226
 30
0.0
 10
843.5171953522066
 20
447.5039499273759
 30
0.0
 10
843.3681782665439
 20
446.86082011886
 30
0.0
 10
843.2130551382751
 20
446.3508243038196
 30
0.0
 10
843.0742813052794
 20
446.0747954646832
 30
0.0
 10
842.9876594481982
 20
446.0461030773466
 30
0.0
 10
842.952603249514
 20
446.0344911578485
 30
0.0
  0
LINE
  5
75
330
1F
100
AcDbEntity
  8
0
  6
Continuous
 62
     7
370
    15
100
AcDbLine
 10
795.4097100307
 20
446.0344911578
 30
0.0
 11
842.9526032495
 21
446.0344911578
 31
0.0
  0
LINE
  5
76
330
1F
100
AcDbEntity
  8
0
  6
Continuous
 62
     7
370
    15
100
AcDbLine
 10
842.9526032495
 20
454.8344911578
 30
0.0
 11
795.4097100307
 21
454.8344911578
 31
0.0
  0
SPLINE
  5
77
330
1F
100
AcDbEntity
  8
0
  6
Continuous
 62
     7
370
    15
100
AcDbSpline
210
0.0
220
0.0
230
1.0
 70
     8
 71
     3
 72
    12
 73
     8
 74
     0
 42
0.00000001
 43
0.00000001
 12
1.0
 22
0.0
 32
0.0
 13
1.0
 23
0.0
 33
0.0
 40
0.0
 40
0.0
 40
0.0
 40
0.0
 40
0.1928947997657638
 40
0.4122214398807409
 40
0.6315552886408375
 40
0.8508890083770755
 40
0.9999999999999999
 40
0.9999999999999999
 40
0.9999999999999999
 40
0.9999999999999999
 10
842.9526032495139
 20
454.8344911578484
 30
0.0
 10
842.9980331001287
 20
454.8152374558209
 30
0.0
 10
843.0951179280079
 20
454.7740917702839
 30
0.0
 10
843.2441350136709
 20
454.4305920023455
 30
0.0
 10
843.3992581419394
 20
453.8844948322359
 30
0.0
 10
843.5380319749353
 20
453.2655597943887
 30
0.0
 10
843.6246538320163
 20
452.851900617538
 30
0.0
 10
843.6597100307005
 20
452.6844911578485
 30
0.0
  0
LINE
  5
78
330
1F
100
AcDbEntity
  8
0
  6
Continuous
 62
     7
370
    15
100
AcDbLine
 10
845.8097100307
 20
452.6844911578
 30
0.0
 11
843.6597100307
 21
452.6844911578
 31
0.0
  0
LINE
  5
79
330
1F
100
AcDbEntity
  8
0
  6
Continuous
 62
     7
370
    15
100
AcDbLine
 10
845.8097100307
 20
452.6844911578
 30
0.0
 11
845.8097100307
 21
448.1844911578
 31
0.0
  0
LINE
  5
7A
330
1F
100
AcDbEntity
  8
0
  6
Continuous
 62
     7
370
    15
100
AcDbLine
 10
845.8097100307
 20
448.1844911578
 30
0.0
 11
843.6597100307
 21
448.1844911578
 31
0.0
  0
LINE
  5
7B
330
1F
100
AcDbEntity
  8
0
  6
Continuous
 62
     7
370
    15
100
AcDbLine
 10
843.6597100307
 20
446.0344911578
 30
0.0
 11
843.6597100307
 21
446.6844911578
 31
0.0
  0
SPLINE
  5
7C
330
1F
100
AcDbEntity
  8
0
  6
Continuous
 62
     7
370
    15
100
AcDbSpline
210
0.0
220
0.0
230
1.0
 70
     8
 71
     3
 72
    12
 73
     8
 74
     0
 42
0.00000001
 43
0.00000001
 12
1.0
 22
0.0
 32
0.0
 13
1.0
 23
0.0
 33
0.0
 40
0.0
 40
0.0
 40
0.0
 40
0.0
 40
0.224174315150075
 40
0.4483910025872551
 40
0.6726078467289193
 40
0.8968244803948726
 40
1.0
 40
1.0
 40
1.0
 40
1.0
 10
843.6597100307006
 20
446.6844911578485
 30
0.0
 10
843.8357970150856
 20
446.7025838018135
 30
0.0
 10
844.1880042669205
 20
446.7387725095228
 30
0.0
 10
844.6519974515298
 20
447.0201058788025
 30
0.0
 10
844.9918782669313
 20
447.4309498977947
 30
0.0
 10
845.1432289436187
 20
447.8477204976679
 30
0.0
 10
845.155760721845
 20
448.103791908832
 30
0.0
 10
845.1597100307005
 20
448.1844911578485
 30
0.0
  0
SPLINE
  5
7D
330
1F
100
AcDbEntity
  8
0
  6
Continuous
 62
     7
370
    15
100
AcDbSpline
210
0.0
220
0.0
230
1.0
 70
     8
 71
     3
 72
    12
 73
     8
 74
     0
 42
0.00000001
 43
0.00000001
 12
1.0
 22
0.0
 32
0.0
 13
1.0
 23
0.0
 33
0.0
 40
0.0
 40
0.0
 40
0.0
 40
0.0
 40
0.1928947997657509
 40
0.4122214398807487
 40
0.6315552886408253
 40
0.8508890083770538
 40
0.9999999999999999
 40
0.9999999999999999
 40
0.9999999999999999
 40
0.9999999999999999
 10
843.6597100307006
 20
446.0344911578485
 30
0.0
 10
843.8766482911267
 20
446.0537448598761
 30
0.0
 10
844.3402512611734
 20
446.0948905454131
 30
0.0
 10
844.9833810696894
 20
446.4383903133514
 30
0.0
 10
845.4933768847293
 20
446.9844874834611
 30
0.0
 10
845.7694057238657
 20
447.6034225213082
 30
0.0
 10
845.7980981112023
 20
448.0170816981589
 30
0.0
 10
845.8097100307002
 20
448.1844911578485
 30
0.0
  0
SPLINE
  5
7E
330
1F
100
AcDbEntity
  8
0
  6
Continuous
 62
     7
370
    15
100
AcDbSpline
210
0.0
220
0.0
230
1.0
 70
     8
 71
     3
 72
    12
 73
     8
 74
     0
 42
0.00000001
 43
0.00000001
 12
1.0
 22
0.0
 32
0.0
 13
1.0
 23
0.0
 33
0.0
 40
0.0
 40
0.0
 40
0.0
 40
0.0
 40
0.1928947997657517
 40
0.4122214398807295
 40
0.6315552886408142
 40
0.8508890083770363
 40
1.0
 40
1.0
 40
1.0
 40
1.0
 10
845.8097100307002
 20
452.6844911578485
 30
0.0
 10
845.7904563286727
 20
452.9014294182744
 30
0.0
 10
845.7493106431359
 20
453.3650323883211
 30
0.0
 10
845.4058108751976
 20
454.0081621968371
 30
0.0
 10
844.8597137050882
 20
454.5181580118773
 30
0.0
 10
844.240778667241
 20
454.7941868510139
 30
0.0
 10
843.8271194903903
 20
454.8228792383504
 30
0.0
 10
843.6597100307006
 20
454.8344911578484
 30
0.0
  0
SPLINE
  5
7F
330
1F
100
AcDbEntity
  8
0
  6
Continuous
 62
     7
370
    15
100
AcDbSpline
210
0.0
220
0.0
230
1.0
 70
     8
 71
     3
 72
    12
 73
     8
 74
     0
 42
0.00000001
 43
0.00000001
 12
1.0
 22
0.0
 32
0.0
 13
1.0
 23
0.0
 33
0.0
 40
0.0
 40
0.0
 40
0.0
 40
0.0
 40
0.2241743151500639
 40
0.4483910025872362
 40
0.6726078467289096
 40
0.8968244803948716
 40
1.0
 40
1.0
 40
1.0
 40
1.0
 10
845.1597100307005
 20
452.6844911578485
 30
0.0
 10
845.1416173867356
 20
452.8605781422336
 30
0.0
 10
845.1054286790263
 20
453.2127853940685
 30
0.0
 10
844.8240953097463
 20
453.6767785786779
 30
0.0
 10
844.4132512907545
 20
454.0166593940792
 30
0.0
 10
843.9964806908811
 20
454.1680100707668
 30
0.0
 10
843.740409279717
 20
454.1805418489931
 30
0.0
 10
843.6597100307006
 20
454.1844911578485
 30
0.0
  0
LINE
  5
80
330
1F
100
AcDbEntity
  8
0
  6
Continuous
 62
     7
370
    15
100
AcDbLine
 10
843.6597100307
 20
454.8344911578
 30
0.0
 11
843.6597100307
 21
454.1844911578
 31
0.0
  0
LINE
  5
81
330
1F
100
AcDbEntity
  8
0
  6
Continuous
 62
     7
370
    15
100
AcDbLine
 10
843.3055914446
 20
446.6844911578
 30
0.0
 11
843.6597100307
 21
446.6844911578
 31
0.0
  0
LINE
  5
82
330
1F
100
AcDbEntity
  8
0
  6
Continuous
 62
     7
370
    15
100
AcDbLine
 10
842.9526032495
 20
446.0344911578
 30
0.0
 11
843.6597100307
 21
446.0344911578
 31
0.0
  0
LINE
  5
83
330
1F
100
AcDbEntity
  8
0
  6
Continuous
 62
     7
370
    15
100
AcDbLine
 10
843.6597100307
 20
454.1844911578
 30
0.0
 11
843.3059141839
 21
454.1844911578
 31
0.0
  0
LINE
  5
84
330
1F
100
AcDbEntity
  8
0
  6
Continuous
 62
     7
370
    15
100
AcDbLine
 10
843.6597100307
 20
454.8344911578
 30
0.0
 11
842.9526032495
 21
454.8344911578
 31
0.0
  0
LINE
  5
85
330
1F
100
AcDbEntity
  8
0
  6
Continuous
 62
     7
370
    15
100
AcDbLine
 10
828.920156888
 20
451.976213499
 30
0.0
 11
826.6992631734
 21
451.976213499
 31
0.0
  0
LINE
  5
86
330
1F
100
AcDbEntity
  8
0
  6
Continuous
 62
     7
370
    15
100
AcDbLine
 10
826.6992631734
 20
448.8927688167
 30
0.0
 11
828.920156888
 21
448.8927688167
 31
0.0
  0
LINE
  5
87
330
1F
100
AcDbEntity
  8
0
  6
Continuous
 62
     7
370
    15
100
AcDbLine
 10
825.9766797527
 20
449.9344911578
 30
0.0
 11
829.6427403087
 21
449.9344911578
 31
0.0
  0
LINE
  5
88
330
1F
100
AcDbEntity
  8
0
  6
Continuous
 62
     7
370
    15
100
AcDbLine
 10
828.9759004097
 20
448.9344911578
 30
0.0
 11
826.6435196517
 21
448.9344911578
 31
0.0
  0
LINE
  5
89
330
1F
100
AcDbEntity
  8
0
  6
Continuous
 62
     7
370
    15
100
AcDbLine
 10
798.0597100307
 20
455.3844911578
 30
0.0
 11
798.0597100307
 21
454.8344911578
 31
0.0
  0
LINE
  5
8A
330
1F
100
AcDbEntity
  8
0
  6
Continuous
 62
     7
370
    15
100
AcDbLine
 10
798.0597100307
 20
455.3844911578
 30
0.0
 11
815.5097100307
 21
455.3844911578
 31
0.0
  0
LINE
  5
8B
330
1F
100
AcDbEntity
  8
0
  6
Continuous
 62
     7
370
    15
100
AcDbLine
 10
833.0597100307
 20
455.3844911578
 30
0.0
 11
833.0597100307
 21
454.8344911578
 31
0.0
  0
LINE
  5
8C
330
1F
100
AcDbEntity
  8
0
  6
Continuous
 62
     7
370
    15
100
AcDbLine
 10
815.6097100307
 20
455.3844911578
 30
0.0
 11
833.0597100307
 21
455.3844911578
 31
0.0
  0
LINE
  5
8D
330
1F
100
AcDbEntity
  8
0
  6
Continuous
 62
     7
370
    15
100
AcDbLine
 10
815.5097100307
 20
455.3844911578
 30
0.0
 11
815.6097100307
 21
455.3844911578
 31
0.0
  0
LINE
  5
8E
330
1F
100
AcDbEntity
  8
0
  6
Continuous
 62
     7
370
    15
100
AcDbLine
 10
828.0597100307
 20
451.9344911578
 30
0.0
 11
828.0597100307
 21
451.976213499
 31
0.0
  0
LINE
  5
8F
330
1F
100
AcDbEntity
  8
0
  6
Continuous
 62
     7
370
    15
100
AcDbLine
 10
101.428990915
 20
724.0344911579
 30
0.0
 11
98.4940288655
 21
757.5812608903
 31
0.0
  0
ARC
  5
90
330
1F
100
AcDbEntity
  8
0
  6
Continuous
 62
     7
370
    15
100
AcDbCircle
 10
99.4902235636
 20
751.8155582305
 30
0.0
 40
5.851130748658997
100
AcDbArc
 50
80.1972507075
 51
99.8027492925
  0
LINE
  5
91
330
1F
100
AcDbEntity
  8
0
  6
Continuous
 62
     7
370
    15
100
AcDbLine
 10
100.4864182617
 20
757.5812608903
 30
0.0
 11
103.4213803112
 21
724.0344911579
 31
0.0
  0
LINE
  5
92
330
1F
100
AcDbEntity
  8
0
  6
Continuous
 62
     7
370
    15
100
AcDbLine
 10
37.4213803112
 20
724.0344911579
 30
0.0
 11
41.5898409618
 21
771.6802144163
 31
0.0
  0
ARC
  5
93
330
1F
100
AcDbEntity
  8
0
  6
Continuous
 62
     7
370
    15
100
AcDbCircle
 10
42.5860356599
 20
765.9145117565
 30
0.0
 40
5.851130748650143
100
AcDbArc
 50
80.1972507075
 51
99.8027492925
  0
LINE
  5
94
330
1F
100
AcDbEntity
  8
0
  6
Continuous
 62
     7
370
    15
100
AcDbLine
 10
43.582230358
 20
771.6802144163
 30
0.0
 11
39.4137697074
 21
724.0344911579
 31
0.0
  0
LINE
  5
95
330
1F
100
AcDbEntity
  8
0
  6
Continuous
 62
     7
370
    15
100
AcDbLine
 10
98.4940288655
 20
757.5812608903
 30
0.0
 11
43.582230358
 21
771.6802144163
 31
0.0
  0
ARC
  5
96
330
1F
100
AcDbEntity
  8
0
  6
Continuous
 62
     7
370
    15
100
AcDbCircle
 10
63.4791743154
 20
767.0179952612
 30
0.0
 40
20.43586715301254
100
AcDbArc
 50
161.6752935119
 51
166.812465909
  0
LINE
  5
97
330
1F
100
AcDbEntity
  8
0
  6
Continuous
 62
     7
370
    15
100
AcDbLine
 10
44.0796101323
 20
773.4430692531
 30
0.0
 11
98.9914086399
 21
759.344115727
 31
0.0
  0
ARC
  5
98
330
1F
100
AcDbEntity
  8
0
  6
Continuous
 62
     7
370
    15
100
AcDbCircle
 10
118.390972823
 20
752.9190417351
 30
0.0
 40
20.43586715301207
100
AcDbArc
 50
161.6752935119
 51
166.812465909
  0
ARC
  5
99
330
1F
100
AcDbEntity
  8
0
  6
Continuous
 62
     7
370
    15
100
AcDbCircle
 10
98.4940288655
 20
757.4069494048
 30
0.0
 40
1.999999999999964
100
AcDbArc
 50
5.0
 51
75.6
  0
ARC
  5
9A
330
1F
100
AcDbEntity
  8
0
  6
Continuous
 62
     7
370
    15
100
AcDbCircle
 10
43.582230358
 20
771.5059029308
 30
0.0
 40
2.000000000000067
100
AcDbArc
 50
75.6
 51
175.0
  0
LINE
  5
9B
330
1F
100
AcDbEntity
  8
0
  6
Continuous
 62
     7
370
    15
100
AcDbLine
 10
103.6697732554
 20
704.2344911574
 30
0.0
 11
48.0197732543
 21
704.2344911574
 31
0.0
  0
LINE
  5
9C
330
1F
100
AcDbEntity
  8
0
  6
Continuous
 62
     7
370
    15
100
AcDbLine
 10
48.0197732543
 20
704.2344911574
 30
0.0
 11
48.0197732543
 21
706.2344911579
 31
0.0
  0
LINE
  5
9D
330
1F
100
AcDbEntity
  8
0
  6
Continuous
 62
     7
370
    15
100
AcDbLine
 10
48.0197732543
 20
706.5344911574
 30
0.0
 11
103.6697732554
 21
706.5344911574
 31
0.0
  0
ARC
  5
9E
330
1F
100
AcDbEntity
  8
0
  6
Continuous
 62
     7
370
    15
100
AcDbCircle
 10
37.1697732554
 20
708.3844911579
 30
0.0
 40
2.149999999999984
100
AcDbArc
 50
180.0
 51
270.0
  0
LINE
  5
9F
330
1F
100
AcDbEntity
  8
0
  6
Continuous
 62
     7
370
    15
100
AcDbLine
 10
35.0197732554
 20
708.3844911579
 30
0.0
 11
35.0197732554
 21
719.8844911579
 31
0.0
  0
ARC
  5
A0
330
1F
100
AcDbEntity
  8
0
  6
Continuous
 62
     7
370
    15
100
AcDbCircle
 10
37.1697732554
 20
719.8844911579
 30
0.0
 40
2.149999999999984
100
AcDbArc
 50
90.0
 51
180.0
  0
LINE
  5
A1
330
1F
100
AcDbEntity
  8
0
  6
Continuous
 62
     7
370
    15
100
AcDbLine
 10
37.1697732554
 20
722.0344911579
 30
0.0
 11
37.1713803112
 21
722.0344911579
 31
0.0
  0
LINE
  5
A2
330
1F
100
AcDbEntity
  8
0
  6
Continuous
 62
     7
370
    15
100
AcDbLine
 10
103.6697732554
 20
719.7344911579
 30
0.0
 11
37.1713803112
 21
719.7344911579
 31
0.0
  0
LINE
  5
A3
330
1F
100
AcDbEntity
  8
0
  6
Continuous
 62
     7
370
    15
100
AcDbLine
 10
103.6697732554
 20
719.7344911579
 30
0.0
 11
103.6697732554
 21
722.0344911579
 31
0.0
  0
ARC
  5
A4
330
1F
100
AcDbEntity
  8
0
  6
Continuous
 62
     7
370
    15
100
AcDbCircle
 10
103.6697732554
 20
719.8844911579
 30
0.0
 40
2.149999999999991
100
AcDbArc
 50
359.9999999959
 51
90.0
  0
ARC
  5
A5
330
1F
100
AcDbEntity
  8
0
  6
Continuous
 62
     7
370
    15
100
AcDbCircle
 10
110.1697732554
 20
708.3844911574
 30
0.0
 40
4.349999999999968
100
AcDbArc
 50
179.999999996
 51
252.5584061437
  0
LINE
  5
A6
330
1F
100
AcDbEntity
  8
0
  6
Continuous
 62
     7
370
    15
100
AcDbLine
 10
108.8659327744
 20
704.2344911574
 30
0.0
 11
103.6697732554
 21
704.2344911574
 31
0.0
  0
LINE
  5
A7
330
1F
100
AcDbEntity
  8
0
  6
Continuous
 62
     7
370
    15
100
AcDbLine
 10
48.0197732543
 20
706.2344911579
 30
0.0
 11
37.1697732554
 21
706.2344911579
 31
0.0
  0
LINE
  5
A8
330
1F
100
AcDbEntity
  8
0
  6
Continuous
 62
     7
370
    15
100
AcDbLine
 10
48.0197732543
 20
706.5344911574
 30
0.0
 11
48.0197732543
 21
706.2344911579
 31
0.0
  0
LINE
  5
A9
330
1F
100
AcDbEntity
  8
0
  6
Continuous
 62
     7
370
    15
100
AcDbLine
 10
37.1713803112
 20
722.0344911579
 30
0.0
 11
37.1713803112
 21
719.7344911579
 31
0.0
  0
LINE
  5
AA
330
1F
100
AcDbEntity
  8
0
  6
Continuous
 62
     7
370
    15
100
AcDbLine
 10
105.8197732554
 20
719.8844911577
 30
0.0
 11
105.8197732554
 21
708.3844911577
 31
0.0
  0
LINE
  5
AB
330
1F
100
AcDbEntity
  8
0
  6
Continuous
 62
     7
370
    15
100
AcDbLine
 10
103.6697732554
 20
704.2344911574
 30
0.0
 11
103.6697732554
 21
706.5344911574
 31
0.0
  0
LINE
  5
AC
330
1F
100
AcDbEntity
  8
0
  6
Continuous
 62
     7
370
    15
100
AcDbLine
 10
909.6692187851
 20
656.060194881
 30
0.0
 11
910.6412407871
 21
653.9756869708
 31
0.0
  0
LINE
  5
AD
330
1F
100
AcDbEntity
  8
0
  6
Continuous
 62
     7
370
    15
100
AcDbLine
 10
910.6412407871
 20
653.9756869708
 30
0.0
 11
875.2479548155
 21
637.471526675
 31
0.0
  0
SPLINE
  5
AE
330
1F
100
AcDbEntity
  8
0
  6
Continuous
 62
     7
370
    15
100
AcDbSpline
210
0.0
220
0.0
230
1.0
 70
     8
 71
     3
 72
    14
 73
    10
 74
     0
 42
0.00000001
 43
0.00000001
 12
1.0
 22
0.0
 32
0.0
 13
1.0
 23
0.0
 33
0.0
 40
0.0
 40
0.0
 40
0.0
 40
0.0
 40
0.1424979789612897
 40
0.2891107491291741
 40
0.4316087267218906
 40
0.5782214232939499
 40
0.720967110898728
 40
0.8678498166738062
 40
1.0
 40
1.0
 40
1.0
 40
1.0
 10
875.2479548154859
 20
637.4715266750055
 30
0.0
 10
875.1033376873079
 20
637.416397204327
 30
0.0
 10
874.8099274469017
 20
637.3045463368053
 30
0.0
 10
874.309713266755
 20
637.27072925781
 30
0.0
 10
873.7630290585194
 20
637.3262868544774
 30
0.0
 10
873.1810733414407
 20
637.4671013635425
 30
0.0
 10
872.5624414128539
 20
637.6756310844936
 30
0.0
 10
871.9432679696405
 20
637.9220615201242
 30
0.0
 10
871.5273917783813
 20
638.098814766089
 30
0.0
 10
871.3304325056129
 20
638.1825252345326
 30
0.0
  0
LINE
  5
AF
330
1F
100
AcDbEntity
  8
0
  6
Continuous
 62
     7
370
    15
100
AcDbLine
 10
871.3304325056
 20
638.1825252345
 30
0.0
 11
909.6692187851
 21
656.060194881
 31
0.0
  0
LINE
  5
B0
330
1F
100
AcDbEntity
  8
0
  6
Continuous
 62
     7
370
    15
100
AcDbLine
 10
874.7866637045
 20
636.2128771509
 30
0.0
 11
931.1876024093
 21
515.2606737753
 31
0.0
  0
LINE
  5
B1
330
1F
100
AcDbEntity
  8
0
  6
Continuous
 62
     7
370
    15
100
AcDbLine
 10
931.1876024093
 20
515.2606737753
 30
0.0
 11
929.1030944991
 21
514.2886517733
 31
0.0
  0
LINE
  5
B2
330
1F
100
AcDbEntity
  8
0
  6
Continuous
 62
     7
370
    15
100
AcDbLine
 10
929.1030944991
 20
514.2886517733
 30
0.0
 11
871.3304325056
 21
638.1825252345
 31
0.0
  0
SPLINE
  5
B3
330
1F
100
AcDbEntity
  8
0
  6
Continuous
 62
     7
370
    15
100
AcDbSpline
210
0.0
220
0.0
230
1.0
 70
     8
 71
     3
 72
    11
 73
     7
 74
     0
 42
0.00000001
 43
0.00000001
 12
1.0
 22
0.0
 32
0.0
 13
1.0
 23
0.0
 33
0.0
 40
0.0
 40
0.0
 40
0.0
 40
0.0
 40
0.288807707719413
 40
0.577615336219724
 40
0.8669345414323455
 40
1.0
 40
1.0
 40
1.0
 40
1.0
 10
871.3304325056132
 20
638.1825252345327
 30
0.0
 10
871.7781305303909
 20
638.0463164796763
 30
0.0
 10
872.6735264571442
 20
637.7738990073254
 30
0.0
 10
873.8206880462045
 20
637.2738896802109
 30
0.0
 10
874.4955755949367
 20
636.7376389497822
 30
0.0
 10
874.716929679386
 20
636.33859081373
 30
0.0
 10
874.7866637045031
 20
636.2128771508828
 30
0.0
  0
LINE
  5
B4
330
1F
100
AcDbEntity
  8
0
  6
Continuous
 62
     7
370
    15
100
AcDbLine
 10
929.1030944991
 20
507.7803305425
 30
0.0
 11
931.1876024093
 21
506.8083085404
 31
0.0
  0
ARC
  5
B5
330
1F
100
AcDbEntity
  8
0
  6
Continuous
 62
     7
370
    15
100
AcDbCircle
 10
922.1245245389
 20
511.0344911579
 30
0.0
 40
7.699999999999726
100
AcDbArc
 50
335.0
 51
25.0
  0
ARC
  5
B6
330
1F
100
AcDbEntity
  8
0
  6
Continuous
 62
     7
370
    15
100
AcDbCircle
 10
922.1245245389
 20
511.0344911579
 30
0.0
 40
9.999999999999776
100
AcDbArc
 50
335.0
 51
25.0
  0
SPLINE
  5
B7
330
1F
100
AcDbEntity
  8
0
  6
Continuous
 62
     7
370
    15
100
AcDbSpline
210
0.0
220
0.0
230
1.0
 70
     8
 71
     3
 72
    12
 73
     8
 74
     0
 42
0.00000001
 43
0.00000001
 12
1.0
 22
0.0
 32
0.0
 13
1.0
 23
0.0
 33
0.0
 40
0.0
 40
0.0
 40
0.0
 40
0.0
 40
0.2096821001528651
 40
0.4420453733186043
 40
0.674433296668131
 40
0.9068208701180629
 40
1.0
 40
1.0
 40
1.0
 40
1.0
 10
35.22138031121963
 20
459.1344911578557
 30
0.0
 10
34.96904935324435
 20
459.0302059499281
 30
0.0
 10
34.43709296575725
 20
458.8103550726414
 30
0.0
 10
33.71571153594205
 20
458.4743869427584
 30
0.0
 10
33.17235260195606
 20
458.1274816743417
 30
0.0
 10
32.9437307618124
 20
457.8491050121089
 30
0.0
 10
32.92635372318825
 20
457.6877445508872
 30
0.0
 10
32.92138031121961
 20
457.6415622256675
 30
0.0
  0
SPLINE
  5
B8
330
1F
100
AcDbEntity
  8
0
  6
Continuous
 62
     7
370
    15
100
AcDbSpline
210
0.0
220
0.0
230
1.0
 70
     8
 71
     3
 72
    11
 73
     7
 74
     0
 42
0.00000001
 43
0.00000001
 12
1.0
 22
0.0
 32
0.0
 13
1.0
 23
0.0
 33
0.0
 40
0.0
 40
0.0
 40
0.0
 40
0.0
 40
0.2543211584721397
 40
0.5088664984542343
 40
0.7634130007197366
 40
1.0
 40
1.0
 40
1.0
 40
1.0
 10
35.22138031121963
 20
459.1344911578557
 30
0.0
 10
35.02140512108026
 20
459.0079100500702
 30
0.0
 10
34.62127846470914
 20
458.7546362545426
 30
0.0
 10
34.11965471061362
 20
458.3746915850571
 30
0.0
 10
33.78358946375476
 20
458.0034664533862
 30
0.0
 10
33.74160493964406
 20
457.759219808717
 30
0.0
 10
33.72138031121963
 20
457.6415622256675
 30
0.0
  0
LINE
  5
B9
330
1F
100
AcDbEntity
  8
0
  6
Continuous
 62
     7
370
    15
100
AcDbLine
 10
32.9213803112
 20
457.6415622257
 30
0.0
 11
33.7213803112
 21
457.6415622257
 31
0.0
  0
CIRCLE
  5
BA
330
1F
100
AcDbEntity
  8
0
  6
Continuous
 62
     7
370
    15
100
AcDbCircle
 10
110.4686027212
 20
684.0344911579
 30
0.0
 40
6.347663105371453
  0
CIRCLE
  5
BB
330
1F
100
AcDbEntity
  8
0
  6
Continuous
 62
     7
370
    15
100
AcDbCircle
 10
880.4686027212
 20
684.0344911579
 30
0.0
 40
6.347663105371453
  0
LINE
  5
BC
330
1F
100
AcDbEntity
  8
0
  6
Continuous
 62
     7
370
    15
100
AcDbLine
 10
35.2213803112
 20
459.1344911579
 30
0.0
 11
901.5137260485
 21
459.1344911579
 31
0.0
  0
LINE
  5
BD
330
1F
100
AcDbEntity
  8
0
  6
Continuous
 62
     7
370
    15
100
AcDbLine
 10
35.2213803112
 20
701.7344911579
 30
0.0
 11
35.2213803112
 21
459.1344911579
 31
0.0
  0
LINE
  5
BE
330
1F
100
AcDbEntity
  8
0
  6
Continuous
 62
     7
370
    15
100
AcDbLine
 10
920.8686027212
 20
701.7344911579
 30
0.0
 11
35.2213803112
 21
701.7344911579
 31
0.0
  0
ARC
  5
BF
330
1F
100
AcDbEntity
  8
0
  6
Continuous
 62
     7
370
    15
100
AcDbCircle
 10
920.8686027212
 20
694.0344911579
 30
0.0
 40
7.699999999999704
100
AcDbArc
 50
335.0
 51
90.0
  0
LINE
  5
C0
330
1F
100
AcDbEntity
  8
0
  6
Continuous
 62
     7
370
    15
100
AcDbLine
 10
913.3936281299
 20
659.7846042258
 30
0.0
 11
927.8471726814
 21
690.7803305425
 31
0.0
  0
ARC
  5
C1
330
1F
100
AcDbEntity
  8
0
  6
Continuous
 62
     7
370
    15
100
AcDbCircle
 10
906.4150581697
 20
663.0387648412
 30
0.0
 40
7.700000000000107
100
AcDbArc
 50
295.0
 51
335.0
  0
LINE
  5
C2
330
1F
100
AcDbEntity
  8
0
  6
Continuous
 62
     7
370
    15
100
AcDbLine
 10
908.4922960086
 20
463.5803305425
 30
0.0
 11
929.1030944991
 21
507.7803305425
 31
0.0
  0
ARC
  5
C3
330
1F
100
AcDbEntity
  8
0
  6
Continuous
 62
     7
370
    15
100
AcDbCircle
 10
901.5137260485
 20
466.8344911579
 30
0.0
 40
7.699999999999875
100
AcDbArc
 50
270.0
 51
335.0
  0
CIRCLE
  5
C4
330
1F
100
AcDbEntity
  8
0
  6
Continuous
 62
     7
370
    15
100
AcDbCircle
 10
500.4686027212
 20
684.0344911579
 30
0.0
 40
6.347663105371453
  0
SPLINE
  5
C5
330
1F
100
AcDbEntity
  8
0
  6
Continuous
 62
     7
370
    15
100
AcDbSpline
210
0.0
220
0.0
230
1.0
 70
     8
 71
     3
 72
    12
 73
     8
 74
     0
 42
0.00000001
 43
0.00000001
 12
1.0
 22
0.0
 32
0.0
 13
1.0
 23
0.0
 33
0.0
 40
0.0
 40
0.0
 40
0.0
 40
0.0
 40
0.2096821001528659
 40
0.442045373318591
 40
0.6744332966681127
 40
0.9068208701180268
 40
1.0
 40
1.0
 40
1.0
 40
1.0
 10
32.92138031121949
 20
703.2274200900442
 30
0.0
 10
32.94572028138809
 20
703.1231348821167
 30
0.0
 10
32.9970330600749
 20
702.90328400483
 30
0.0
 10
33.41796364700361
 20
702.567315874947
 30
0.0
 10
34.06975312489907
 20
702.2204106065304
 30
0.0
 10
34.7191941640016
 20
701.9420339442976
 30
0.0
 10
35.10963408110812
 20
701.7806734830758
 30
0.0
 10
35.22138031121958
 20
701.734491157856
 30
0.0
  0
LINE
  5
C6
330
1F
100
AcDbEntity
  8
0
  6
Continuous
 62
     7
370
    15
100
AcDbLine
 10
32.9213803112
 20
703.22742009
 30
0.0
 11
33.7213803112
 21
703.22742009
 31
0.0
  0
SPLINE
  5
C7
330
1F
100
AcDbEntity
  8
0
  6
Continuous
 62
     7
370
    15
100
AcDbSpline
210
0.0
220
0.0
230
1.0
 70
     8
 71
     3
 72
    11
 73
     7
 74
     0
 42
0.00000001
 43
0.00000001
 12
1.0
 22
0.0
 32
0.0
 13
1.0
 23
0.0
 33
0.0
 40
0.0
 40
0.0
 40
0.0
 40
0.0
 40
0.2543211584721066
 40
0.5088664984542097
 40
0.7634130007196994
 40
1.0
 40
1.0
 40
1.0
 40
1.0
 10
33.72138031121958
 20
703.2274200900441
 30
0.0
 10
33.74473437323855
 20
703.1008389822589
 30
0.0
 10
33.79146308364444
 20
702.8475651867311
 30
0.0
 10
34.15035069983963
 20
702.4676205172457
 30
0.0
 10
34.64957367912913
 20
702.0963953855749
 30
0.0
 10
35.03548199572442
 20
701.8521487409056
 30
0.0
 10
35.22138031121958
 20
701.734491157856
 30
0.0
  0
SPLINE
  5
C8
330
1F
100
AcDbEntity
  8
0
  6
Continuous
 62
     7
370
    15
100
AcDbSpline
210
0.0
220
0.0
230
1.0
 70
     8
 71
     3
 72
    12
 73
     8
 74
     0
 42
0.00000001
 43
0.00000001
 12
1.0
 22
0.0
 32
0.0
 13
1.0
 23
0.0
 33
0.0
 40
0.0
 40
0.0
 40
0.0
 40
0.0
 40
0.2096821001528799
 40
0.4420453733185745
 40
0.6744332966681301
 40
0.9068208701180551
 40
0.9999999999999999
 40
0.9999999999999999
 40
0.9999999999999999
 40
0.9999999999999999
 10
35.22138031121958
 20
701.734491157856
 30
0.0
 10
35.11709510329209
 20
701.9868221158314
 30
0.0
 10
34.89724422600538
 20
702.5187785033186
 30
0.0
 10
34.56127609612231
 20
703.2401599331334
 30
0.0
 10
34.21437082770562
 20
703.7835188671197
 30
0.0
 10
33.93599416547271
 20
704.0121407072633
 30
0.0
 10
33.77463370425116
 20
704.0295177458875
 30
0.0
 10
33.72845137903147
 20
704.034491157856
 30
0.0
  0
LINE
  5
C9
330
1F
100
AcDbEntity
  8
0
  6
Continuous
 62
     7
370
    15
100
AcDbLine
 10
33.728451379
 20
704.0344911579
 30
0.0
 11
37.1713803112
 21
704.0344911579
 31
0.0
  0
LINE
  5
CA
330
1F
100
AcDbEntity
  8
0
  6
Continuous
 62
     7
370
    15
100
AcDbLine
 10
47.9213803112
 20
704.0344911579
 30
0.0
 11
110.1713803112
 21
704.0344911579
 31
0.0
  0
LINE
  5
CB
330
1F
100
AcDbEntity
  8
0
  6
Continuous
 62
     7
370
    15
100
AcDbLine
 10
920.8686027212
 20
704.0344911579
 30
0.0
 11
920.8686027212
 21
701.7344911579
 31
0.0
  0
SPLINE
  5
CC
330
1F
100
AcDbEntity
  8
0
  6
Continuous
 62
     7
370
    15
100
AcDbSpline
210
0.0
220
0.0
230
1.0
 70
     8
 71
     3
 72
    11
 73
     7
 74
     0
 42
0.00000001
 43
0.00000001
 12
1.0
 22
0.0
 32
0.0
 13
1.0
 23
0.0
 33
0.0
 40
0.0
 40
0.0
 40
0.0
 40
0.0
 40
0.2543211584720612
 40
0.5088664984541674
 40
0.7634130007196556
 40
1.0
 40
1.0
 40
1.0
 40
1.0
 10
35.22138031121958
 20
701.734491157856
 30
0.0
 10
35.09479920343417
 20
701.9344663479952
 30
0.0
 10
34.84152540790652
 20
702.3345930043664
 30
0.0
 10
34.46158073842126
 20
702.8362167584619
 30
0.0
 10
34.09035560675011
 20
703.172282005321
 30
0.0
 10
33.84610896208107
 20
703.2142665294315
 30
0.0
 10
33.72845137903147
 20
703.234491157856
 30
0.0
  0
LINE
  5
CD
330
1F
100
AcDbEntity
  8
0
  6
Continuous
 62
     7
370
    15
100
AcDbLine
 10
33.728451379
 20
704.0344911579
 30
0.0
 11
33.728451379
 21
703.2344911579
 31
0.0
  0
LINE
  5
CE
330
1F
100
AcDbEntity
  8
0
  6
Continuous
 62
     7
370
    15
100
AcDbLine
 10
32.9213803112
 20
703.22742009
 30
0.0
 11
32.9213803112
 21
457.6415622257
 31
0.0
  0
LINE
  5
CF
330
1F
100
AcDbEntity
  8
0
  6
Continuous
 62
     7
370
    15
100
AcDbLine
 10
910.5768039188
 20
462.6083085404
 30
0.0
 11
931.1876024093
 21
506.8083085404
 31
0.0
  0
LINE
  5
D0
330
1F
100
AcDbEntity
  8
0
  6
Continuous
 62
     7
370
    15
100
AcDbLine
 10
910.5768039188
 20
462.6083085404
 30
0.0
 11
908.4922960086
 21
463.5803305425
 31
0.0
  0
CIRCLE
  5
D1
330
1F
100
AcDbEntity
  8
0
  6
Continuous
 62
     7
370
    15
100
AcDbCircle
 10
500.4686027212
 20
684.0344911579
 30
0.0
 40
4.699999999999932
  0
LINE
  5
D2
330
1F
100
AcDbEntity
  8
0
  6
Continuous
 62
     7
370
    15
100
AcDbLine
 10
927.8471726814
 20
690.7803305425
 30
0.0
 11
929.9316805916
 21
689.8083085404
 31
0.0
  0
ARC
  5
D3
330
1F
100
AcDbEntity
  8
0
  6
Continuous
 62
     7
370
    15
100
AcDbCircle
 10
920.8686027212
 20
694.0344911579
 30
0.0
 40
9.999999999999673
100
AcDbArc
 50
335.0
 51
90.0
  0
LINE
  5
D4
330
1F
100
AcDbEntity
  8
0
  6
Continuous
 62
     7
370
    15
100
AcDbLine
 10
915.4781360401
 20
658.8125822238
 30
0.0
 11
929.9316805916
 21
689.8083085404
 31
0.0
  0
LINE
  5
D5
330
1F
100
AcDbEntity
  8
0
  6
Continuous
 62
     7
370
    15
100
AcDbLine
 10
915.4781360401
 20
658.8125822238
 30
0.0
 11
913.3936281299
 21
659.7846042258
 31
0.0
  0
CIRCLE
  5
D6
330
1F
100
AcDbEntity
  8
0
  6
Continuous
 62
     7
370
    15
100
AcDbCircle
 10
880.4686027212
 20
684.0344911579
 30
0.0
 40
4.699999999999932
  0
SPLINE
  5
D7
330
1F
100
AcDbEntity
  8
0
  6
Continuous
 62
     7
370
    15
100
AcDbSpline
210
0.0
220
0.0
230
1.0
 70
     8
 71
     3
 72
    12
 73
     8
 74
     0
 42
0.00000001
 43
0.00000001
 12
1.0
 22
0.0
 32
0.0
 13
1.0
 23
0.0
 33
0.0
 40
0.0
 40
0.0
 40
0.0
 40
0.0
 40
0.2096821001528683
 40
0.4420453733186041
 40
0.6744332966681316
 40
0.9068208701180589
 40
1.0
 40
1.0
 40
1.0
 40
1.0
 10
33.72845137903147
 20
456.8344911578556
 30
0.0
 10
33.83273658695907
 20
456.8588311280242
 30
0.0
 10
34.05258746424572
 20
456.9101439067111
 30
0.0
 10
34.38855559412868
 20
457.3310744936397
 30
0.0
 10
34.73546086254553
 20
457.9828639715353
 30
0.0
 10
35.0138375247781
 20
458.6323050106378
 30
0.0
 10
35.17519798599994
 20
459.0227449277442
 30
0.0
 10
35.22138031121958
 20
459.1344911578557
 30
0.0
  0
LINE
  5
D8
330
1F
100
AcDbEntity
  8
0
  6
Continuous
 62
     7
370
    15
100
AcDbLine
 10
33.728451379
 20
456.8344911579
 30
0.0
 11
33.728451379
 21
457.6344911579
 31
0.0
  0
SPLINE
  5
D9
330
1F
100
AcDbEntity
  8
0
  6
Continuous
 62
     7
370
    15
100
AcDbSpline
210
0.0
220
0.0
230
1.0
 70
     8
 71
     3
 72
    11
 73
     7
 74
     0
 42
0.00000001
 43
0.00000001
 12
1.0
 22
0.0
 32
0.0
 13
1.0
 23
0.0
 33
0.0
 40
0.0
 40
0.0
 40
0.0
 40
0.0
 40
0.2543211584721391
 40
0.5088664984542423
 40
0.7634130007197231
 40
1.0
 40
1.0
 40
1.0
 40
1.0
 10
33.72845137903147
 20
457.6344911578557
 30
0.0
 10
33.85503248681692
 20
457.6578452198747
 30
0.0
 10
34.10830628234463
 20
457.7045739302806
 30
0.0
 10
34.48825095183005
 20
458.0634615464758
 30
0.0
 10
34.85947608350087
 20
458.5626845257653
 30
0.0
 10
35.10372272817003
 20
458.9485928423605
 30
0.0
 10
35.22138031121958
 20
459.1344911578557
 30
0.0
  0
LINE
  5
DA
330
1F
100
AcDbEntity
  8
0
  6
Continuous
 62
     7
370
    15
100
AcDbLine
 10
901.5137260485
 20
459.1344911579
 30
0.0
 11
901.5137260485
 21
456.8344911579
 31
0.0
  0
LINE
  5
DB
330
1F
100
AcDbEntity
  8
0
  6
Continuous
 62
     7
370
    15
100
AcDbLine
 10
840.9102881349
 20
456.8344911579
 30
0.0
 11
33.728451379
 21
456.8344911579
 31
0.0
  0
CIRCLE
  5
DC
330
1F
100
AcDbEntity
  8
0
  6
Continuous
 62
     7
370
    15
100
AcDbCircle
 10
110.4686027212
 20
684.0344911579
 30
0.0
 40
4.699999999999932
  0
ARC
  5
DD
330
1F
100
AcDbEntity
  8
0
  6
Continuous
 62
     7
370
    15
100
AcDbCircle
 10
901.5137260485
 20
466.8344911579
 30
0.0
 40
9.999999999999904
100
AcDbArc
 50
270.0
 51
335.0
  0
ARC
  5
DE
330
1F
100
AcDbEntity
  8
0
  6
Continuous
 62
     7
370
    15
100
AcDbCircle
 10
906.4150581697
 20
663.0387648412
 30
0.0
 40
10.00000000000023
100
AcDbArc
 50
295.0
 51
335.0
  0
CIRCLE
  5
DF
330
1F
100
AcDbEntity
  8
0
  6
Continuous
 62
     7
370
    15
100
AcDbCircle
 10
110.4686027212
 20
684.0344911579
 30
0.0
 40
2.700000000000045
  0
CIRCLE
  5
E0
330
1F
100
AcDbEntity
  8
0
  6
Continuous
 62
     7
370
    15
100
AcDbCircle
 10
880.4686027212
 20
684.0344911579
 30
0.0
 40
2.700000000000045
  0
CIRCLE
  5
E1
330
1F
100
AcDbEntity
  8
0
  6
Continuous
 62
     7
370
    15
100
AcDbCircle
 10
500.4686027212
 20
684.0344911579
 30
0.0
 40
2.700000000000045
  0
LINE
  5
E2
330
1F
100
AcDbEntity
  8
0
  6
Continuous
 62
     7
370
    15
100
AcDbLine
 10
863.1213803112
 20
704.0344911579
 30
0.0
 11
863.1213803112
 21
706.0344911579
 31
0.0
  0
LINE
  5
E3
330
1F
100
AcDbEntity
  8
0
  6
Continuous
 62
     7
370
    15
100
AcDbLine
 10
141.7213803112
 20
706.0344911579
 30
0.0
 11
863.1213803112
 21
706.0344911579
 31
0.0
  0
LINE
  5
E4
330
1F
100
AcDbEntity
  8
0
  6
Continuous
 62
     7
370
    15
100
AcDbLine
 10
141.7213803112
 20
704.0344911579
 30
0.0
 11
863.1213803112
 21
704.0344911579
 31
0.0
  0
LINE
  5
E5
330
1F
100
AcDbEntity
  8
0
  6
Continuous
 62
     7
370
    15
100
AcDbLine
 10
141.7213803112
 20
704.0344911579
 30
0.0
 11
141.7213803112
 21
706.0344911579
 31
0.0
  0
LINE
  5
E6
330
1F
100
AcDbEntity
  8
0
  6
Continuous
 62
     7
370
    15
100
AcDbLine
 10
497.7686027212
 20
684.0344911579
 30
0.0
 11
503.1686027212
 21
684.0344911579
 31
0.0
  0
LINE
  5
E7
330
1F
100
AcDbEntity
  8
0
  6
Continuous
 62
     7
370
    15
100
AcDbLine
 10
45.9213803112
 20
704.0344911579
 30
0.0
 11
45.9213803112
 21
706.0344911579
 31
0.0
  0
LINE
  5
E8
330
1F
100
AcDbEntity
  8
0
  6
Continuous
 62
     7
370
    15
100
AcDbLine
 10
37.1713803112
 20
704.0344911579
 30
0.0
 11
45.9213803112
 21
704.0344911579
 31
0.0
  0
LINE
  5
E9
330
1F
100
AcDbEntity
  8
0
  6
Continuous
 62
     7
370
    15
100
AcDbLine
 10
37.1713803112
 20
706.0344911579
 30
0.0
 11
37.1713803112
 21
704.0344911579
 31
0.0
  0
LINE
  5
EA
330
1F
100
AcDbEntity
  8
0
  6
Continuous
 62
     7
370
    15
100
AcDbLine
 10
37.1713803112
 20
706.0344911579
 30
0.0
 11
45.9213803112
 21
706.0344911579
 31
0.0
  0
LINE
  5
EB
330
1F
100
AcDbEntity
  8
0
  6
Continuous
 62
     7
370
    15
100
AcDbLine
 10
47.9213803112
 20
704.0344911579
 30
0.0
 11
47.9213803112
 21
706.0344911579
 31
0.0
  0
LINE
  5
EC
330
1F
100
AcDbEntity
  8
0
  6
Continuous
 62
     7
370
    15
100
AcDbLine
 10
45.9213803112
 20
704.0344911579
 30
0.0
 11
47.9213803112
 21
704.0344911579
 31
0.0
  0
LINE
  5
ED
330
1F
100
AcDbEntity
  8
0
  6
Continuous
 62
     7
370
    15
100
AcDbLine
 10
45.9213803112
 20
706.0344911579
 30
0.0
 11
47.9213803112
 21
706.0344911579
 31
0.0
  0
LINE
  5
EE
330
1F
100
AcDbEntity
  8
0
  6
Continuous
 62
     7
370
    15
100
AcDbLine
 10
34.9213803112
 20
719.7844911579
 30
0.0
 11
32.9213803112
 21
719.7844911579
 31
0.0
  0
ARC
  5
EF
330
1F
100
AcDbEntity
  8
0
  6
Continuous
 62
     7
370
    15
100
AcDbCircle
 10
37.1713803112
 20
719.7844911579
 30
0.0
 40
4.250000000000114
100
AcDbArc
 50
90.0
 51
180.0
  0
LINE
  5
F0
330
1F
100
AcDbEntity
  8
0
  6
Continuous
 62
     7
370
    15
100
AcDbLine
 10
37.1713803112
 20
722.0344911579
 30
0.0
 11
37.1713803112
 21
724.0344911579
 31
0.0
  0
ARC
  5
F1
330
1F
100
AcDbEntity
  8
0
  6
Continuous
 62
     7
370
    15
100
AcDbCircle
 10
37.1713803112
 20
719.7844911579
 30
0.0
 40
2.250000000000114
100
AcDbArc
 50
90.0
 51
180.0
  0
LINE
  5
F2
330
1F
100
AcDbEntity
  8
0
  6
Continuous
 62
     7
370
    15
100
AcDbLine
 10
105.9213803112
 20
708.2844911579
 30
0.0
 11
105.9213803112
 21
719.7844911579
 31
0.0
  0
LINE
  5
F3
330
1F
100
AcDbEntity
  8
0
  6
Continuous
 62
     7
370
    15
100
AcDbLine
 10
105.9213803112
 20
719.7844911579
 30
0.0
 11
107.9213803112
 21
719.7844911579
 31
0.0
  0
LINE
  5
F4
330
1F
100
AcDbEntity
  8
0
  6
Continuous
 62
     7
370
    15
100
AcDbLine
 10
107.9213803112
 20
708.2844911579
 30
0.0
 11
107.9213803112
 21
719.7844911579
 31
0.0
  0
LINE
  5
F5
330
1F
100
AcDbEntity
  8
0
  6
Continuous
 62
     7
370
    15
100
AcDbLine
 10
107.9213803112
 20
708.2844911579
 30
0.0
 11
105.9213803112
 21
708.2844911579
 31
0.0
  0
LINE
  5
F6
330
1F
100
AcDbEntity
  8
0
  6
Continuous
 62
     7
370
    15
100
AcDbLine
 10
103.6713803112
 20
722.0344911579
 30
0.0
 11
103.6713803112
 21
724.0344911579
 31
0.0
  0
ARC
  5
F7
330
1F
100
AcDbEntity
  8
0
  6
Continuous
 62
     7
370
    15
100
AcDbCircle
 10
103.6713803112
 20
719.7844911579
 30
0.0
 40
2.250000000000028
100
AcDbArc
 50
0.0
 51
90.0
  0
ARC
  5
F8
330
1F
100
AcDbEntity
  8
0
  6
Continuous
 62
     7
370
    15
100
AcDbCircle
 10
103.6713803112
 20
719.7844911579
 30
0.0
 40
4.250000000000028
100
AcDbArc
 50
0.0
 51
90.0
  0
LINE
  5
F9
330
1F
100
AcDbEntity
  8
0
  6
Continuous
 62
     7
370
    15
100
AcDbLine
 10
34.9213803112
 20
708.2844911579
 30
0.0
 11
32.9213803112
 21
708.2844911579
 31
0.0
  0
ARC
  5
FA
330
1F
100
AcDbEntity
  8
0
  6
Continuous
 62
     7
370
    15
100
AcDbCircle
 10
37.1713803112
 20
708.2844911579
 30
0.0
 40
2.250000000000114
100
AcDbArc
 50
180.0
 51
270.0
  0
ARC
  5
FB
330
1F
100
AcDbEntity
  8
0
  6
Continuous
 62
     7
370
    15
100
AcDbCircle
 10
37.1713803112
 20
708.2844911579
 30
0.0
 40
4.250000000000114
100
AcDbArc
 50
180.0
 51
270.0
  0
LINE
  5
FC
330
1F
100
AcDbEntity
  8
0
  6
Continuous
 62
     7
370
    15
100
AcDbLine
 10
103.6713803112
 20
722.0344911579
 30
0.0
 11
37.1713803112
 21
722.0344911579
 31
0.0
  0
LINE
  5
FD
330
1F
100
AcDbEntity
  8
0
  6
Continuous
 62
     7
370
    15
100
AcDbLine
 10
103.6713803112
 20
724.0344911579
 30
0.0
 11
37.1713803112
 21
724.0344911579
 31
0.0
  0
LINE
  5
FE
330
1F
100
AcDbEntity
  8
0
  6
Continuous
 62
     7
370
    15
100
AcDbLine
 10
32.9213803112
 20
719.7844911579
 30
0.0
 11
32.9213803112
 21
708.2844911579
 31
0.0
  0
LINE
  5
FF
330
1F
100
AcDbEntity
  8
0
  6
Continuous
 62
     7
370
    15
100
AcDbLine
 10
34.9213803112
 20
719.7844911579
 30
0.0
 11
34.9213803112
 21
708.2844911579
 31
0.0
  0
LINE
  5
100
330
1F
100
AcDbEntity
  8
0
  6
Continuous
 62
     7
370
    15
100
AcDbLine
 10
110.1713803112
 20
706.0344911579
 30
0.0
 11
110.1713803112
 21
704.0344911579
 31
0.0
  0
LINE
  5
101
330
1F
100
AcDbEntity
  8
0
  6
Continuous
 62
     7
370
    15
100
AcDbLine
 10
110.1713803112
 20
706.0344911579
 30
0.0
 11
141.7213803112
 21
706.0344911579
 31
0.0
  0
LINE
  5
102
330
1F
100
AcDbEntity
  8
0
  6
Continuous
 62
     7
370
    15
100
AcDbLine
 10
110.1713803112
 20
704.0344911579
 30
0.0
 11
141.7213803112
 21
704.0344911579
 31
0.0
  0
ARC
  5
103
330
1F
100
AcDbEntity
  8
0
  6
Continuous
 62
     7
370
    15
100
AcDbCircle
 10
110.1713803112
 20
708.2844911579
 30
0.0
 40
2.249999999999972
100
AcDbArc
 50
180.0
 51
270.0
  0
ARC
  5
104
330
1F
100
AcDbEntity
  8
0
  6
Continuous
 62
     7
370
    15
100
AcDbCircle
 10
110.1713803112
 20
708.2844911579
 30
0.0
 40
4.249999999999972
100
AcDbArc
 50
180.0
 51
270.0
  0
LINE
  5
105
330
1F
100
AcDbEntity
  8
0
  6
Continuous
 62
     7
370
    15
100
AcDbLine
 10
911.5578492559
 20
652.1962043
 30
0.0
 11
894.0114607297
 21
644.0141889573
 31
0.0
  0
LINE
  5
106
330
1F
100
AcDbEntity
  8
0
  6
Continuous
 62
     7
370
    15
100
AcDbLine
 10
894.0114607297
 20
644.0141889573
 30
0.0
 11
893.1662242062
 21
645.8268045314
 31
0.0
  0
LINE
  5
107
330
1F
100
AcDbEntity
  8
0
  6
Continuous
 62
     7
370
    15
100
AcDbLine
 10
910.7126127324
 20
654.0088198741
 30
0.0
 11
893.1662242062
 21
645.8268045314
 31
0.0
  0
LINE
  5
108
330
1F
100
AcDbEntity
  8
0
  6
Continuous
 62
     7
370
    15
100
AcDbLine
 10
910.7126127324
 20
654.0088198741
 30
0.0
 11
911.5578492559
 21
652.1962043
 31
0.0
  0
LINE
  5
109
330
1F
100
AcDbEntity
  8
0
  6
Continuous
 62
     7
370
    15
100
AcDbLine
 10
920.92452454
 20
704.0344911579
 30
0.0
 11
920.92452454
 21
706.0344911579
 31
0.0
  0
ARC
  5
10A
330
1F
100
AcDbEntity
  8
0
  6
Continuous
 62
     7
370
    15
100
AcDbCircle
 10
920.92452454
 20
694.0344911579
 30
0.0
 40
12.00000000000001
100
AcDbArc
 50
335.0
 51
90.0
  0
LINE
  5
10B
330
1F
100
AcDbEntity
  8
0
  6
Continuous
 62
     7
370
    15
100
AcDbLine
 10
929.9876024104
 20
689.8083085404
 30
0.0
 11
931.8002179845
 21
688.963072017
 31
0.0
  0
ARC
  5
10C
330
1F
100
AcDbEntity
  8
0
  6
Continuous
 62
     7
370
    15
100
AcDbCircle
 10
920.92452454
 20
694.0344911579
 30
0.0
 40
10.00000000000014
100
AcDbArc
 50
335.0
 51
90.0
  0
LINE
  5
10D
330
1F
100
AcDbEntity
  8
0
  6
Continuous
 62
     7
370
    15
100
AcDbLine
 10
915.5495079854
 20
658.845715127
 30
0.0
 11
917.3621235595
 21
658.0004786036
 31
0.0
  0
ARC
  5
10E
330
1F
100
AcDbEntity
  8
0
  6
Continuous
 62
     7
370
    15
100
AcDbCircle
 10
906.486430115
 20
663.0718977445
 30
0.0
 40
12.0
100
AcDbArc
 50
295.0
 51
335.0
  0
ARC
  5
10F
330
1F
100
AcDbEntity
  8
0
  6
Continuous
 62
     7
370
    15
100
AcDbCircle
 10
906.486430115
 20
663.0718977445
 30
0.0
 40
10.00000000000003
100
AcDbArc
 50
295.0
 51
335.0
  0
LINE
  5
110
330
1F
100
AcDbEntity
  8
0
  6
Continuous
 62
     7
370
    15
100
AcDbLine
 10
863.1213803112
 20
706.0344911579
 30
0.0
 11
920.92452454
 21
706.0344911579
 31
0.0
  0
LINE
  5
111
330
1F
100
AcDbEntity
  8
0
  6
Continuous
 62
     7
370
    15
100
AcDbLine
 10
863.1213803112
 20
704.0344911579
 30
0.0
 11
920.92452454
 21
704.0344911579
 31
0.0
  0
LINE
  5
112
330
1F
100
AcDbEntity
  8
0
  6
Continuous
 62
     7
370
    15
100
AcDbLine
 10
917.3621235595
 20
658.0004786036
 30
0.0
 11
931.8002179845
 21
688.963072017
 31
0.0
  0
LINE
  5
113
330
1F
100
AcDbEntity
  8
0
  6
Continuous
 62
     7
370
    15
100
AcDbLine
 10
915.5495079854
 20
658.845715127
 30
0.0
 11
929.9876024104
 21
689.8083085404
 31
0.0
  0
LINE
  5
114
330
1F
100
AcDbEntity
  8
0
  6
Continuous
 62
     7
370
    15
100
AcDbLine
 10
892.1988451557
 20
643.1689524338
 30
0.0
 11
891.3536086322
 21
644.9815680079
 31
0.0
  0
LINE
  5
115
330
1F
100
AcDbEntity
  8
0
  6
Continuous
 62
     7
370
    15
100
AcDbLine
 10
893.1662242062
 20
645.8268045314
 30
0.0
 11
891.3536086322
 21
644.9815680079
 31
0.0
  0
LINE
  5
116
330
1F
100
AcDbEntity
  8
0
  6
Continuous
 62
     7
370
    15
100
AcDbLine
 10
894.0114607297
 20
644.0141889573
 30
0.0
 11
892.1988451557
 21
643.1689524338
 31
0.0
  0
LINE
  5
117
330
1F
100
AcDbEntity
  8
0
  6
Continuous
 62
     7
370
    15
100
AcDbLine
 10
901.5395855268
 20
456.0344911579
 30
0.0
 11
901.5395855268
 21
456.8344911579
 31
0.0
  0
LINE
  5
118
330
1F
100
AcDbEntity
  8
0
  6
Continuous
 62
     7
370
    15
100
AcDbLine
 10
842.9102881349
 20
456.8344911579
 30
0.0
 11
842.9102881349
 21
456.0344911579
 31
0.0
  0
LINE
  5
119
330
1F
100
AcDbEntity
  8
0
  6
Continuous
 62
     7
370
    15
100
AcDbLine
 10
842.9102881349
 20
456.8344911579
 30
0.0
 11
901.5395855268
 21
456.8344911579
 31
0.0
  0
LINE
  5
11A
330
1F
100
AcDbEntity
  8
0
  6
Continuous
 62
     7
370
    15
100
AcDbLine
 10
842.9102881349
 20
456.0344911579
 30
0.0
 11
901.5395855268
 21
456.0344911579
 31
0.0
  0
LINE
  5
11B
330
1F
100
AcDbEntity
  8
0
  6
Continuous
 62
     7
370
    15
100
AcDbLine
 10
876.2981557884
 20
637.8776409925
 30
0.0
 11
876.6362503978
 21
637.1525947629
 31
0.0
  0
LINE
  5
11C
330
1F
100
AcDbEntity
  8
0
  6
Continuous
 62
     7
370
    15
100
AcDbLine
 10
876.2981557884
 20
637.8776409925
 30
0.0
 11
888.9411494175
 21
643.7731657438
 31
0.0
  0
LINE
  5
11D
330
1F
100
AcDbEntity
  8
0
  6
Continuous
 62
     7
370
    15
100
AcDbLine
 10
889.2792440269
 20
643.0481195142
 30
0.0
 11
888.9411494175
 21
643.7731657438
 31
0.0
  0
LINE
  5
11E
330
1F
100
AcDbEntity
  8
0
  6
Continuous
 62
     7
370
    15
100
AcDbLine
 10
876.6362503978
 20
637.1525947629
 30
0.0
 11
889.2792440269
 21
643.0481195142
 31
0.0
  0
LINE
  5
11F
330
1F
100
AcDbEntity
  8
0
  6
Continuous
 62
     7
370
    15
100
AcDbLine
 10
840.9102881349
 20
456.0344911579
 30
0.0
 11
840.9102881349
 21
456.8344911579
 31
0.0
  0
LINE
  5
120
330
1F
100
AcDbEntity
  8
0
  6
Continuous
 62
     7
370
    15
100
AcDbLine
 10
840.9102881349
 20
456.8344911579
 30
0.0
 11
842.9102881349
 21
456.8344911579
 31
0.0
  0
LINE
  5
121
330
1F
100
AcDbEntity
  8
0
  6
Continuous
 62
     7
370
    15
100
AcDbLine
 10
842.9102881349
 20
456.0344911579
 30
0.0
 11
840.9102881349
 21
456.0344911579
 31
0.0
  0
ARC
  5
122
330
1F
100
AcDbEntity
  8
0
  6
Continuous
 62
     7
370
    15
100
AcDbCircle
 10
901.5395855268
 20
466.8344911579
 30
0.0
 40
9.999999999999943
100
AcDbArc
 50
270.0
 51
335.0
  0
LINE
  5
123
330
1F
100
AcDbEntity
  8
0
  6
Continuous
 62
     7
370
    15
100
AcDbLine
 10
910.6026633972
 20
462.6083085404
 30
0.0
 11
911.3277096268
 21
462.2702139311
 31
0.0
  0
ARC
  5
124
330
1F
100
AcDbEntity
  8
0
  6
Continuous
 62
     7
370
    15
100
AcDbCircle
 10
901.5395855268
 20
466.8344911579
 30
0.0
 40
10.79999999999996
100
AcDbArc
 50
270.0
 51
335.0
  0
LINE
  5
125
330
1F
100
AcDbEntity
  8
0
  6
Continuous
 62
     7
370
    15
100
AcDbLine
 10
931.9385081173
 20
506.4702139311
 30
0.0
 11
931.2134618877
 21
506.8083085404
 31
0.0
  0
LINE
  5
126
330
1F
100
AcDbEntity
  8
0
  6
Continuous
 62
     7
370
    15
100
AcDbLine
 10
911.3277096268
 20
462.2702139311
 30
0.0
 11
931.9385081173
 21
506.4702139311
 31
0.0
  0
LINE
  5
127
330
1F
100
AcDbEntity
  8
0
  6
Continuous
 62
     7
370
    15
100
AcDbLine
 10
910.6026633972
 20
462.6083085404
 30
0.0
 11
931.2134618877
 21
506.8083085404
 31
0.0
  0
LINE
  5
128
330
1F
100
AcDbEntity
  8
0
  6
Continuous
 62
     7
370
    15
100
AcDbLine
 10
876.0316384912
 20
635.4914372019
 30
0.0
 11
875.3065922615
 21
635.1533425925
 31
0.0
  0
LINE
  5
129
330
1F
100
AcDbEntity
  8
0
  6
Continuous
 62
     7
370
    15
100
AcDbLine
 10
931.2134618877
 20
515.2606737753
 30
0.0
 11
931.9385081173
 21
515.5987683847
 31
0.0
  0
LINE
  5
12A
330
1F
100
AcDbEntity
  8
0
  6
Continuous
 62
     7
370
    15
100
AcDbLine
 10
931.9385081173
 20
515.5987683847
 30
0.0
 11
876.0316384912
 21
635.4914372019
 31
0.0
  0
LINE
  5
12B
330
1F
100
AcDbEntity
  8
0
  6
Continuous
 62
     7
370
    15
100
AcDbLine
 10
931.2134618877
 20
515.2606737753
 30
0.0
 11
875.3065922615
 21
635.1533425925
 31
0.0
  0
ARC
  5
12C
330
1F
100
AcDbEntity
  8
0
  6
Continuous
 62
     7
370
    15
100
AcDbCircle
 10
922.1503840173
 20
511.0344911579
 30
0.0
 40
10.7999999999999
100
AcDbArc
 50
335.0
 51
25.0
  0
ARC
  5
12D
330
1F
100
AcDbEntity
  8
0
  6
Continuous
 62
     7
370
    15
100
AcDbCircle
 10
922.1503840173
 20
511.0344911579
 30
0.0
 40
9.999999999999977
100
AcDbArc
 50
335.0
 51
25.0
  0
ARC
  5
12E
330
1F
100
AcDbEntity
  8
0
  6
Continuous
 62
     7
370
    15
100
AcDbCircle
 10
877.164523225
 20
636.0197100291
 30
0.0
 40
1.250000000000128
100
AcDbArc
 50
115.0
 51
205.0
  0
ARC
  5
12F
330
1F
100
AcDbEntity
  8
0
  6
Continuous
 62
     7
370
    15
100
AcDbCircle
 10
877.164523225
 20
636.0197100291
 30
0.0
 40
2.050000000000057
100
AcDbArc
 50
115.0
 51
205.0
  0
LINE
  5
130
330
1F
100
AcDbEntity
  8
0
  6
Continuous
 62
     7
370
    15
100
AcDbLine
 10
890.7537649916
 20
644.6184022673
 30
0.0
 11
891.091859601
 21
643.8933560377
 31
0.0
  0
LINE
  5
131
330
1F
100
AcDbEntity
  8
0
  6
Continuous
 62
     7
370
    15
100
AcDbLine
 10
891.091859601
 20
643.8933560377
 30
0.0
 11
889.2792440269
 21
643.0481195142
 31
0.0
  0
LINE
  5
132
330
1F
100
AcDbEntity
  8
0
  6
Continuous
 62
     7
370
    15
100
AcDbLine
 10
888.9411494175
 20
643.7731657438
 30
0.0
 11
890.7537649916
 21
644.6184022673
 31
0.0
  0
LWPOLYLINE
  5
133
330
1F
100
AcDbEntity
  8
0
  6
Continuous
 62
     7
370
    15
100
AcDbPolyline
 90
        3
 70
   128
 43
0.0
 10
888.8768099605
 20
643.7431637622
 10
889.1032472224
 20
643.8738973764
 10
889.2713962147
 20
644.0107647931
  0
LINE
  5
134
330
1F
100
AcDbEntity
  8
0
  6
Continuous
 62
     7
370
    15
100
AcDbLine
 10
921.8460746123
 20
549.0730697966
 30
0.0
 11
895.1871498665
 21
606.2433184074
 31
0.0
  0
LINE
  5
135
330
1F
100
AcDbEntity
  8
0
  6
Continuous
 62
     7
370
    15
100
AcDbLine
 10
907.5637309948
 20
603.3636703569
 30
0.0
 11
905.5350696502
 21
607.7141486499
 31
0.0
  0
SPLINE
  5
136
330
1F
100
AcDbEntity
  8
0
  6
Continuous
 62
     7
370
    15
100
AcDbSpline
210
0.0
220
0.0
230
1.0
 70
     8
 71
     3
 72
     9
 73
     5
 74
     0
 42
0.00000001
 43
0.00000001
 12
1.0
 22
0.0
 32
0.0
 13
1.0
 23
0.0
 33
0.0
 40
0.0
 40
0.0
 40
0.0
 40
0.0
 40
0.5209744652335259
 40
1.0
 40
1.0
 40
1.0
 40
1.0
 10
907.460888769273
 20
602.0967998445664
 30
0.0
 10
907.3833302250962
 20
602.3295960862085
 30
0.0
 10
907.2344581606234
 20
602.7764437863885
 30
0.0
 10
907.457086388786
 20
603.17347991371
 30
0.0
 10
907.5637309948356
 20
603.3636703569218
 30
0.0
  0
LINE
  5
137
330
1F
100
AcDbEntity
  8
0
  6
Continuous
 62
     7
370
    15
100
AcDbLine
 10
926.5590644003
 20
561.1406300348
 30
0.0
 11
907.4608887693
 21
602.0967998446
 31
0.0
  0
SPLINE
  5
138
330
1F
100
AcDbEntity
  8
0
  6
Continuous
 62
     7
370
    15
100
AcDbSpline
210
0.0
220
0.0
230
1.0
 70
     8
 71
     3
 72
     9
 73
     5
 74
     0
 42
0.00000001
 43
0.00000001
 12
1.0
 22
0.0
 32
0.0
 13
1.0
 23
0.0
 33
0.0
 40
0.0
 40
0.0
 40
0.0
 40
0.0
 40
0.4790255347664726
 40
1.0
 40
1.0
 40
1.0
 40
1.0
 10
927.5956492247467
 20
560.4050830817966
 30
0.0
 10
927.3814050611819
 20
560.4456406343196
 30
0.0
 10
926.934155075502
 20
560.5303074204915
 30
0.0
 10
926.6875429963312
 20
560.9315782033063
 30
0.0
 10
926.5590644002652
 20
561.140630034797
 30
0.0
  0
LINE
  5
139
330
1F
100
AcDbEntity
  8
0
  6
Continuous
 62
     7
370
    15
100
AcDbLine
 10
929.6243105694
 20
556.0546047888
 30
0.0
 11
927.5956492247
 21
560.4050830818
 31
0.0
  0
LINE
  5
13A
330
1F
100
AcDbEntity
  8
0
  6
Continuous
 62
     7
370
    15
100
AcDbLine
 10
899.6547788609
 20
604.3920660369
 30
0.0
 11
899.4254410413
 21
604.8835395321
 31
0.0
  0
LINE
  5
13B
330
1F
100
AcDbEntity
  8
0
  6
Continuous
 62
     7
370
    15
100
AcDbLine
 10
900.5332005065
 20
604.2599985553
 30
0.0
 11
899.6547788609
 21
604.3920660369
 31
0.0
  0
LINE
  5
13C
330
1F
100
AcDbEntity
  8
0
  6
Continuous
 62
     7
370
    15
100
AcDbLine
 10
903.9957980641
 20
604.9547497879
 30
0.0
 11
900.3682288346
 21
604.6324971179
 31
0.0
  0
SPLINE
  5
13D
330
1F
100
AcDbEntity
  8
0
  6
Continuous
 62
     7
370
    15
100
AcDbSpline
210
0.0
220
0.0
230
1.0
 70
     8
 71
     3
 72
    13
 73
     9
 74
     0
 42
0.00000001
 43
0.00000001
 12
1.0
 22
0.0
 32
0.0
 13
1.0
 23
0.0
 33
0.0
 40
0.0
 40
0.0
 40
0.0
 40
0.0
 40
0.1668687810416472
 40
0.3335139733833787
 40
0.50014184436173
 40
0.6667240192321385
 40
0.8323715538119847
 40
0.9999999999999999
 40
0.9999999999999999
 40
0.9999999999999999
 40
0.9999999999999999
 10
905.4946743039516
 20
594.7417471988255
 30
0.0
 10
905.4584682980986
 20
594.7317261262035
 30
0.0
 10
905.3861047990848
 20
594.711697408268
 30
0.0
 10
905.2912013327092
 20
594.6613911063212
 30
0.0
 10
905.2128085741202
 20
594.5962236980625
 30
0.0
 10
905.1566499955193
 20
594.5174209654978
 30
0.0
 10
905.1215215699991
 20
594.4292829072351
 30
0.0
 10
905.1189579468863
 20
594.3663948886424
 30
0.0
 10
905.1176685165528
 20
594.3347639837801
 30
0.0
  0
SPLINE
  5
13E
330
1F
100
AcDbEntity
  8
0
  6
Continuous
 62
     7
370
    15
100
AcDbSpline
210
0.0
220
0.0
230
1.0
 70
     8
 71
     3
 72
    10
 73
     6
 74
     0
 42
0.00000001
 43
0.00000001
 12
1.0
 22
0.0
 32
0.0
 13
1.0
 23
0.0
 33
0.0
 40
0.0
 40
0.0
 40
0.0
 40
0.0
 40
0.5008430943488237
 40
0.7508790136583559
 40
1.0
 40
1.0
 40
1.0
 40
1.0
 10
907.0589887745562
 20
594.3999627120651
 30
0.0
 10
906.8093155628615
 20
594.5032181053597
 30
0.0
 10
906.4349979830655
 20
594.6580216930437
 30
0.0
 10
905.8938503034791
 20
594.780268744997
 30
0.0
 10
905.6275702772127
 20
594.7545720138846
 30
0.0
 10
905.4946743039516
 20
594.7417471988255
 30
0.0
  0
LINE
  5
13F
330
1F
100
AcDbEntity
  8
0
  6
Continuous
 62
     7
370
    15
100
AcDbLine
 10
908.8466191012
 20
593.6198835374
 30
0.0
 11
907.0589887746
 21
594.3999627121
 31
0.0
  0
LINE
  5
140
330
1F
100
AcDbEntity
  8
0
  6
Continuous
 62
     7
370
    15
100
AcDbLine
 10
909.2218944778
 20
593.7070787551
 30
0.0
 11
908.8466191012
 21
593.6198835374
 31
0.0
  0
LINE
  5
141
330
1F
100
AcDbEntity
  8
0
  6
Continuous
 62
     7
370
    15
100
AcDbLine
 10
907.9645462161
 20
594.7143979285
 30
0.0
 11
907.3896473101
 21
595.9138943736
 31
0.0
  0
SPLINE
  5
142
330
1F
100
AcDbEntity
  8
0
  6
Continuous
 62
     7
370
    15
100
AcDbSpline
210
0.0
220
0.0
230
1.0
 70
     8
 71
     3
 72
     9
 73
     5
 74
     0
 42
0.00000001
 43
0.00000001
 12
1.0
 22
0.0
 32
0.0
 13
1.0
 23
0.0
 33
0.0
 40
0.0
 40
0.0
 40
0.0
 40
0.0
 40
0.6943904332086319
 40
1.0
 40
1.0
 40
1.0
 40
1.0
 10
904.4132081046896
 20
594.018507440237
 30
0.0
 10
904.3592403346283
 20
594.1592532547928
 30
0.0
 10
904.2815207010038
 20
594.3619429921866
 30
0.0
 10
904.3110095305514
 20
594.5596231211651
 30
0.0
 10
904.3200215989746
 20
594.6200360597455
 30
0.0
  0
SPLINE
  5
143
330
1F
100
AcDbEntity
  8
0
  6
Continuous
 62
     7
370
    15
100
AcDbSpline
210
0.0
220
0.0
230
1.0
 70
     8
 71
     3
 72
    13
 73
     9
 74
     0
 42
0.00000001
 43
0.00000001
 12
1.0
 22
0.0
 32
0.0
 13
1.0
 23
0.0
 33
0.0
 40
0.0
 40
0.0
 40
0.0
 40
0.0
 40
0.2498957672619413
 40
0.3750954217629629
 40
0.5002463091109062
 40
0.6260891681495047
 40
0.7505767696289002
 40
1.0
 40
1.0
 40
1.0
 40
1.0
 10
906.3887600574903
 20
593.1553742069007
 30
0.0
 10
906.193185326482
 20
593.1297144625399
 30
0.0
 10
905.8996261877356
 20
593.0911989937156
 30
0.0
 10
905.4961670893633
 20
593.1534886254249
 30
0.0
 10
905.2052875321409
 20
593.2490158634961
 30
0.0
 10
904.9409385466967
 20
593.3917475547106
 30
0.0
 10
904.6349408267216
 20
593.6342334175013
 30
0.0
 10
904.5019330680119
 20
593.8647425910053
 30
0.0
 10
904.4132081046896
 20
594.018507440237
 30
0.0
  0
SPLINE
  5
144
330
1F
100
AcDbEntity
  8
0
  6
Continuous
 62
     7
370
    15
100
AcDbSpline
210
0.0
220
0.0
230
1.0
 70
     8
 71
     3
 72
    13
 73
     9
 74
     0
 42
0.00000001
 43
0.00000001
 12
1.0
 22
0.0
 32
0.0
 13
1.0
 23
0.0
 33
0.0
 40
0.0
 40
0.0
 40
0.0
 40
0.0
 40
0.2505547133554786
 40
0.500089511431
 40
0.6251715279108002
 40
0.7501838345784978
 40
0.8751021895206692
 40
1.0
 40
1.0
 40
1.0
 40
1.0
 10
913.3761692062958
 20
578.6719151837818
 30
0.0
 10
913.3316425292421
 20
578.7483991859538
 30
0.0
 10
913.2427704267177
 20
578.9010558523013
 30
0.0
 10
913.095052292598
 20
579.0700649833582
 30
0.0
 10
912.9441206284248
 20
579.156236499749
 30
0.0
 10
912.821519393406
 20
579.1922867371679
 30
0.0
 10
912.6941779497489
 20
579.1968409773373
 30
0.0
 10
912.6164035209583
 20
579.1684002802759
 30
0.0
 10
912.5775195045825
 20
579.1541811012029
 30
0.0
  0
SPLINE
  5
145
330
1F
100
AcDbEntity
  8
0
  6
Continuous
 62
     7
370
    15
100
AcDbSpline
210
0.0
220
0.0
230
1.0
 70
     8
 71
     3
 72
    13
 73
     9
 74
     0
 42
0.00000001
 43
0.00000001
 12
1.0
 22
0.0
 32
0.0
 13
1.0
 23
0.0
 33
0.0
 40
0.0
 40
0.0
 40
0.0
 40
0.0
 40
0.2497025552937964
 40
0.3749249067604781
 40
0.5002270304518008
 40
0.6262186151574689
 40
0.7507599282806778
 40
1.0
 40
1.0
 40
1.0
 40
1.0
 10
915.0165503760286
 20
579.8354827720805
 30
0.0
 10
914.9723700692807
 20
579.913621666905
 30
0.0
 10
914.9060339544233
 20
580.0309461284908
 30
0.0
 10
914.7701852752583
 20
580.1448560178817
 30
0.0
 10
914.655088646383
 20
580.2067217334288
 30
0.0
 10
914.5327385613804
 20
580.2462827434284
 30
0.0
 10
914.3632383127558
 20
580.2654750063446
 30
0.0
 10
914.2449002761131
 20
580.2236983656064
 30
0.0
 10
914.1659916361002
 20
580.1958414060144
 30
0.0
  0
SPLINE
  5
146
330
1F
100
AcDbEntity
  8
0
  6
Continuous
 62
     7
370
    15
100
AcDbSpline
210
0.0
220
0.0
230
1.0
 70
     8
 71
     3
 72
    12
 73
     8
 74
     0
 42
0.00000001
 43
0.00000001
 12
1.0
 22
0.0
 32
0.0
 13
1.0
 23
0.0
 33
0.0
 40
0.0
 40
0.0
 40
0.0
 40
0.0
 40
0.2504797821883142
 40
0.4998422172398072
 40
0.6240491896562356
 40
0.7503609880625403
 40
1.0
 40
1.0
 40
1.0
 40
1.0
 10
914.7416160731481
 20
578.9074377940641
 30
0.0
 10
914.8094398748714
 20
578.9601974694463
 30
0.0
 10
914.9447849280286
 20
579.0654814683925
 30
0.0
 10
915.0605835527075
 20
579.2591700045674
 30
0.0
 10
915.0971206152716
 20
579.4352920075684
 30
0.0
 10
915.0985810315273
 20
579.6188093033189
 30
0.0
 10
915.0492843673084
 20
579.749020127184
 30
0.0
 10
915.0165503760286
 20
579.8354827720805
 30
0.0
  0
LINE
  5
147
330
1F
100
AcDbEntity
  8
0
  6
Continuous
 62
     7
370
    15
100
AcDbLine
 10
915.0886062014
 20
578.137039804
 30
0.0
 11
914.7416160731
 21
578.9074377941
 31
0.0
  0
SPLINE
  5
148
330
1F
100
AcDbEntity
  8
0
  6
Continuous
 62
     7
370
    15
100
AcDbSpline
210
0.0
220
0.0
230
1.0
 70
     8
 71
     3
 72
    11
 73
     7
 74
     0
 42
0.00000001
 43
0.00000001
 12
1.0
 22
0.0
 32
0.0
 13
1.0
 23
0.0
 33
0.0
 40
0.0
 40
0.0
 40
0.0
 40
0.0
 40
0.2502399880622824
 40
0.500100847545438
 40
0.7499392365391151
 40
1.0
 40
1.0
 40
1.0
 40
1.0
 10
913.2233485399273
 20
579.7140702058861
 30
0.0
 10
913.208803995472
 20
579.8420210835177
 30
0.0
 10
913.1797369424179
 20
580.0977289855331
 30
0.0
 10
913.2813702548664
 20
580.4650298622729
 30
0.0
 10
913.4897724092807
 20
580.774352709666
 30
0.0
 10
913.6977553157412
 20
580.8959621606709
 30
0.0
 10
913.80179302839
 20
580.9567939344657
 30
0.0
  0
SPLINE
  5
149
330
1F
100
AcDbEntity
  8
0
  6
Continuous
 62
     7
370
    15
100
AcDbSpline
210
0.0
220
0.0
230
1.0
 70
     8
 71
     3
 72
    12
 73
     8
 74
     0
 42
0.00000001
 43
0.00000001
 12
1.0
 22
0.0
 32
0.0
 13
1.0
 23
0.0
 33
0.0
 40
0.0
 40
0.0
 40
0.0
 40
0.0
 40
0.250003586717811
 40
0.4996446644012347
 40
0.749246160094808
 40
0.8746035298916032
 40
1.0
 40
1.0
 40
1.0
 40
1.0
 10
911.7201062154345
 20
578.2570181403615
 30
0.0
 10
911.6616841336936
 20
578.4108441608287
 30
0.0
 10
911.5449246831263
 20
578.7182731516745
 30
0.0
 10
911.5823625579995
 20
579.2112773933436
 30
0.0
 10
911.7419992257783
 20
579.5745559931307
 30
0.0
 10
911.9537260143325
 20
579.7989287658773
 30
0.0
 10
912.0865335444774
 20
579.8728810803055
 30
0.0
 10
912.1529476639591
 20
579.9098630032508
 30
0.0
  0
SPLINE
  5
14A
330
1F
100
AcDbEntity
  8
0
  6
Continuous
 62
     7
370
    15
100
AcDbSpline
210
0.0
220
0.0
230
1.0
 70
     8
 71
     3
 72
     9
 73
     5
 74
     0
 42
0.00000001
 43
0.00000001
 12
1.0
 22
0.0
 32
0.0
 13
1.0
 23
0.0
 33
0.0
 40
0.0
 40
0.0
 40
0.0
 40
0.0
 40
0.4997213299034645
 40
1.0
 40
1.0
 40
1.0
 40
1.0
 10
912.502171559935
 20
577.4923815992868
 30
0.0
 10
912.3363012380756
 20
577.5778556385684
 30
0.0
 10
912.0043755988569
 20
577.7488990464975
 30
0.0
 10
911.8148978777585
 20
578.0875821884977
 30
0.0
 10
911.7201062154345
 20
578.2570181403615
 30
0.0
  0
SPLINE
  5
14B
330
1F
100
AcDbEntity
  8
0
  6
Continuous
 62
     7
370
    15
100
AcDbSpline
210
0.0
220
0.0
230
1.0
 70
     8
 71
     3
 72
     9
 73
     5
 74
     0
 42
0.00000001
 43
0.00000001
 12
1.0
 22
0.0
 32
0.0
 13
1.0
 23
0.0
 33
0.0
 40
0.0
 40
0.0
 40
0.0
 40
0.0
 40
0.5006304763340217
 40
1.0
 40
1.0
 40
1.0
 40
1.0
 10
913.3193755488059
 20
577.4883937076526
 30
0.0
 10
913.1842790909295
 20
577.4528194241204
 30
0.0
 10
912.9144264465887
 20
577.3817604590475
 30
0.0
 10
912.639474288267
 20
577.4555388962461
 30
0.0
 10
912.5021715599349
 20
577.4923815992868
 30
0.0
  0
LINE
  5
14C
330
1F
100
AcDbEntity
  8
0
  6
Continuous
 62
     7
370
    15
100
AcDbLine
 10
918.9877156996
 20
562.8297102049
 30
0.0
 11
918.6864102695
 21
563.4598860318
 31
0.0
  0
LINE
  5
14D
330
1F
100
AcDbEntity
  8
0
  6
Continuous
 62
     7
370
    15
100
AcDbLine
 10
921.4223327803
 20
565.6028667819
 30
0.0
 11
922.1070993434
 21
566.1393695428
 31
0.0
  0
LINE
  5
14E
330
1F
100
AcDbEntity
  8
0
  6
Continuous
 62
     7
370
    15
100
AcDbLine
 10
920.6898443744
 20
565.4403870459
 30
0.0
 11
921.2770420689
 21
565.9003594573
 31
0.0
  0
LINE
  5
14F
330
1F
100
AcDbEntity
  8
0
  6
Continuous
 62
     7
370
    15
100
AcDbLine
 10
920.835048537
 20
565.1429415956
 30
0.0
 11
920.6898443744
 21
565.4403870459
 31
0.0
  0
LINE
  5
150
330
1F
100
AcDbEntity
  8
0
  6
Continuous
 62
     7
370
    15
100
AcDbLine
 10
918.6864102695
 20
563.4598860318
 30
0.0
 11
920.835048537
 21
565.1429415956
 31
0.0
  0
LINE
  5
151
330
1F
100
AcDbEntity
  8
0
  6
Continuous
 62
     7
370
    15
100
AcDbLine
 10
923.8943887865
 20
552.4670881446
 30
0.0
 11
923.5540988449
 21
553.1623321129
 31
0.0
  0
SPLINE
  5
152
330
1F
100
AcDbEntity
  8
0
  6
Continuous
 62
     7
370
    15
100
AcDbSpline
210
0.0
220
0.0
230
1.0
 70
     8
 71
     3
 72
    10
 73
     6
 74
     0
 42
0.00000001
 43
0.00000001
 12
1.0
 22
0.0
 32
0.0
 13
1.0
 23
0.0
 33
0.0
 40
0.0
 40
0.0
 40
0.0
 40
0.0
 40
0.2499966304038555
 40
0.5002514141207065
 40
1.0
 40
1.0
 40
1.0
 40
1.0
 10
925.4345132491432
 20
554.361408546024
 30
0.0
 10
925.4455299282636
 20
554.3474224547572
 30
0.0
 10
925.4675746626265
 20
554.3194358298059
 30
0.0
 10
925.5574776929867
 20
554.3190718685522
 30
0.0
 10
925.6494853087098
 20
554.3596628929448
 30
0.0
 10
925.7107926010657
 20
554.3867098474813
 30
0.0
  0
SPLINE
  5
153
330
1F
100
AcDbEntity
  8
0
  6
Continuous
 62
     7
370
    15
100
AcDbSpline
210
0.0
220
0.0
230
1.0
 70
     8
 71
     3
 72
    11
 73
     7
 74
     0
 42
0.00000001
 43
0.00000001
 12
1.0
 22
0.0
 32
0.0
 13
1.0
 23
0.0
 33
0.0
 40
0.0
 40
0.0
 40
0.0
 40
0.0
 40
0.25033072295799
 40
0.5003304167015029
 40
0.750138700922678
 40
0.9999999999999999
 40
0.9999999999999999
 40
0.9999999999999999
 40
0.9999999999999999
 10
926.2405515420038
 20
554.8567938150566
 30
0.0
 10
926.2774384442872
 20
554.9095187327206
 30
0.0
 10
926.3511634708128
 20
555.0148988463303
 30
0.0
 10
926.424938802464
 20
555.1612027324065
 30
0.0
 10
926.4622628705171
 20
555.2861904501505
 30
0.0
 10
926.4489064039132
 20
555.3378745263385
 30
0.0
 10
926.4422274620518
 20
555.3637193062684
 30
0.0
  0
LINE
  5
154
330
1F
100
AcDbEntity
  8
0
  6
Continuous
 62
     7
370
    15
100
AcDbLine
 10
926.3565784776
 20
554.5855781445
 30
0.0
 11
926.240551542
 21
554.8567938151
 31
0.0
  0
SPLINE
  5
155
330
1F
100
AcDbEntity
  8
0
  6
Continuous
 62
     7
370
    15
100
AcDbSpline
210
0.0
220
0.0
230
1.0
 70
     8
 71
     3
 72
    11
 73
     7
 74
     0
 42
0.00000001
 43
0.00000001
 12
1.0
 22
0.0
 32
0.0
 13
1.0
 23
0.0
 33
0.0
 40
0.0
 40
0.0
 40
0.0
 40
0.0
 40
0.2762133740190388
 40
0.5521801340586739
 40
0.8281001877864155
 40
0.9999999999999999
 40
0.9999999999999999
 40
0.9999999999999999
 40
0.9999999999999999
 10
925.6543947206451
 20
555.3364731336578
 30
0.0
 10
925.7998098288374
 20
555.47425200059
 30
0.0
 10
926.0905102129918
 20
555.7496867201551
 30
0.0
 10
926.5088177980838
 20
555.9837388957484
 30
0.0
 10
926.8197665870022
 20
556.0725542702509
 30
0.0
 10
926.899388852104
 20
555.9930244919648
 30
0.0
 10
926.9299525976185
 20
555.9624962483729
 30
0.0
  0
SPLINE
  5
156
330
1F
100
AcDbEntity
  8
0
  6
Continuous
 62
     7
370
    15
100
AcDbSpline
210
0.0
220
0.0
230
1.0
 70
     8
 71
     3
 72
    13
 73
     9
 74
     0
 42
0.00000001
 43
0.00000001
 12
1.0
 22
0.0
 32
0.0
 13
1.0
 23
0.0
 33
0.0
 40
0.0
 40
0.0
 40
0.0
 40
0.0
 40
0.2493178862007967
 40
0.3731116598096423
 40
0.4997957686022617
 40
0.6255125568845262
 40
0.7502732772197711
 40
1.0
 40
1.0
 40
1.0
 40
1.0
 10
924.8685714831257
 20
553.808297774099
 30
0.0
 10
924.8502361161615
 20
553.8840715190863
 30
0.0
 10
924.8227966921172
 20
553.9974691906015
 30
0.0
 10
924.8972015211816
 20
554.2462734842862
 30
0.0
 10
924.9901554054878
 20
554.4547423515234
 30
0.0
 10
925.1177467257016
 20
554.6783204435513
 30
0.0
 10
925.3277910379229
 20
554.9832573357019
 30
0.0
 10
925.5237317658607
 20
555.1951635824221
 30
0.0
 10
925.6543947206451
 20
555.3364731336578
 30
0.0
  0
LINE
  5
157
330
1F
100
AcDbEntity
  8
0
  6
Continuous
 62
     7
370
    15
100
AcDbLine
 10
924.942280273
 20
553.7449696995
 30
0.0
 11
924.8685714831
 21
553.8082977741
 31
0.0
  0
LINE
  5
158
330
1F
100
AcDbEntity
  8
0
  6
Continuous
 62
     7
370
    15
100
AcDbLine
 10
924.3473281158
 20
553.2257726661
 30
0.0
 11
924.942280273
 21
553.7449696995
 31
0.0
  0
LINE
  5
159
330
1F
100
AcDbEntity
  8
0
  6
Continuous
 62
     7
370
    15
100
AcDbLine
 10
923.5540988449
 20
553.1623321129
 30
0.0
 11
924.1002083603
 21
553.7191613942
 31
0.0
  0
LINE
  5
15A
330
1F
100
AcDbEntity
  8
0
  6
Continuous
 62
     7
370
    15
100
AcDbLine
 10
912.9840010229
 20
578.2368101013
 30
0.0
 11
913.3230197971
 21
577.4893664441
 31
0.0
  0
SPLINE
  5
15B
330
1F
100
AcDbEntity
  8
0
  6
Continuous
 62
     7
370
    15
100
AcDbSpline
210
0.0
220
0.0
230
1.0
 70
     8
 71
     3
 72
     9
 73
     5
 74
     0
 42
0.00000001
 43
0.00000001
 12
1.0
 22
0.0
 32
0.0
 13
1.0
 23
0.0
 33
0.0
 40
0.0
 40
0.0
 40
0.0
 40
0.0
 40
0.500616564572982
 40
1.0
 40
1.0
 40
1.0
 40
1.0
 10
913.3230197970507
 20
577.4893664441347
 30
0.0
 10
913.1879171574349
 20
577.4538009163952
 30
0.0
 10
912.9180446658382
 20
577.3827574666643
 30
0.0
 10
912.6430860190737
 20
577.456584092212
 30
0.0
 10
912.505776225452
 20
577.493451886104
 30
0.0
  0
SPLINE
  5
15C
330
1F
100
AcDbEntity
  8
0
  6
Continuous
 62
     7
370
    15
100
AcDbSpline
210
0.0
220
0.0
230
1.0
 70
     8
 71
     3
 72
     9
 73
     5
 74
     0
 42
0.00000001
 43
0.00000001
 12
1.0
 22
0.0
 32
0.0
 13
1.0
 23
0.0
 33
0.0
 40
0.0
 40
0.0
 40
0.0
 40
0.0
 40
0.4997008530854812
 40
1.0
 40
1.0
 40
1.0
 40
1.0
 10
912.5057691067984
 20
577.493454487205
 30
0.0
 10
912.3398781791307
 20
577.5789728309022
 30
0.0
 10
912.0078977019243
 20
577.7501119097514
 30
0.0
 10
911.8183863947921
 20
578.0888825406345
 30
0.0
 10
911.7235740495034
 20
578.2583691982651
 30
0.0
  0
SPLINE
  5
15D
330
1F
100
AcDbEntity
  8
0
  6
Continuous
 62
     7
370
    15
100
AcDbSpline
210
0.0
220
0.0
230
1.0
 70
     8
 71
     3
 72
    12
 73
     8
 74
     0
 42
0.00000001
 43
0.00000001
 12
1.0
 22
0.0
 32
0.0
 13
1.0
 23
0.0
 33
0.0
 40
0.0
 40
0.0
 40
0.0
 40
0.0
 40
0.2500356429272329
 40
0.4996919190955555
 40
0.7492818424375006
 40
0.874623285011225
 40
1.0
 40
1.0
 40
1.0
 40
1.0
 10
911.7235740495034
 20
578.2583691982651
 30
0.0
 10
911.6651313770195
 20
578.4122373236823
 30
0.0
 10
911.5483347042384
 20
578.7197401179928
 30
0.0
 10
911.585708152865
 20
579.2128506325637
 30
0.0
 10
911.74530858743
 20
579.576215098525
 30
0.0
 10
911.9570270764046
 20
579.8006291821399
 30
0.0
 10
912.08983573684
 20
579.8745864190272
 30
0.0
 10
912.1562494091854
 20
579.9115702398271
 30
0.0
  0
SPLINE
  5
15E
330
1F
100
AcDbEntity
  8
0
  6
Continuous
 62
     7
370
    15
100
AcDbSpline
210
0.0
220
0.0
230
1.0
 70
     8
 71
     3
 72
    11
 73
     7
 74
     0
 42
0.00000001
 43
0.00000001
 12
1.0
 22
0.0
 32
0.0
 13
1.0
 23
0.0
 33
0.0
 40
0.0
 40
0.0
 40
0.0
 40
0.0
 40
0.2497918759814379
 40
0.4996164650705071
 40
0.7496500228683132
 40
1.0
 40
1.0
 40
1.0
 40
1.0
 10
912.1562494091854
 20
579.9115702398271
 30
0.0
 10
912.2443491188233
 20
579.9445102616755
 30
0.0
 10
912.4205600757654
 20
580.0103946192456
 30
0.0
 10
912.7111498394091
 20
579.9927596863076
 30
0.0
 10
912.9889570632064
 20
579.895118769843
 30
0.0
 10
913.1474390484291
 20
579.775468422836
 30
0.0
 10
913.226730149368
 20
579.7156054186681
 30
0.0
  0
SPLINE
  5
15F
330
1F
100
AcDbEntity
  8
0
  6
Continuous
 62
     7
370
    15
100
AcDbSpline
210
0.0
220
0.0
230
1.0
 70
     8
 71
     3
 72
    11
 73
     7
 74
     0
 42
0.00000001
 43
0.00000001
 12
1.0
 22
0.0
 32
0.0
 13
1.0
 23
0.0
 33
0.0
 40
0.0
 40
0.0
 40
0.0
 40
0.0
 40
0.2502722655242094
 40
0.5001441456561694
 40
0.7499686563293546
 40
1.0
 40
1.0
 40
1.0
 40
1.0
 10
913.2267306298531
 20
579.7156054740553
 30
0.0
 10
913.2121699153638
 20
579.8435877822628
 30
0.0
 10
913.1830717806058
 20
580.0993476526723
 30
0.0
 10
913.2846590612174
 20
580.466728808927
 30
0.0
 10
913.4930353870297
 20
580.7761166929633
 30
0.0
 10
913.7010232309628
 20
580.8977390214994
 30
0.0
 10
913.8050601840841
 20
580.9585753485325
 30
0.0
  0
SPLINE
  5
160
330
1F
100
AcDbEntity
  8
0
  6
Continuous
 62
     7
370
    15
100
AcDbSpline
210
0.0
220
0.0
230
1.0
 70
     8
 71
     3
 72
    12
 73
     8
 74
     0
 42
0.00000001
 43
0.00000001
 12
1.0
 22
0.0
 32
0.0
 13
1.0
 23
0.0
 33
0.0
 40
0.0
 40
0.0
 40
0.0
 40
0.0
 40
0.2493224862309086
 40
0.3746760781431623
 40
0.5001494989181205
 40
0.7497768430247574
 40
1.0
 40
1.0
 40
1.0
 40
1.0
 10
913.8050601840844
 20
580.9585753485325
 30
0.0
 10
913.9824336637195
 20
581.0195817829054
 30
0.0
 10
914.2489864352762
 20
581.1112608445013
 30
0.0
 10
914.6293871946336
 20
581.0554168853043
 30
0.0
 10
914.9910609695271
 20
580.9282133539699
 30
0.0
 10
915.4047610142167
 20
580.634506343181
 30
0.0
 10
915.5999015837326
 20
580.284555218393
 30
0.0
 10
915.6975881705272
 20
580.1093710882543
 30
0.0
  0
SPLINE
  5
161
330
1F
100
AcDbEntity
  8
0
  6
Continuous
 62
     7
370
    15
100
AcDbSpline
210
0.0
220
0.0
230
1.0
 70
     8
 71
     3
 72
    13
 73
     9
 74
     0
 42
0.00000001
 43
0.00000001
 12
1.0
 22
0.0
 32
0.0
 13
1.0
 23
0.0
 33
0.0
 40
0.0
 40
0.0
 40
0.0
 40
0.0
 40
0.2496106696942177
 40
0.3750348042323104
 40
0.4999515380912815
 40
0.6248925914948368
 40
0.7502737772131873
 40
1.0
 40
1.0
 40
1.0
 40
1.0
 10
915.6975881705272
 20
580.1093710882543
 30
0.0
 10
915.7681251414926
 20
579.9236788728783
 30
0.0
 10
915.8741054632858
 20
579.6446802077719
 30
0.0
 10
915.8733137965307
 20
579.2496483803428
 30
0.0
 10
915.8146803902167
 20
578.9641522432922
 30
0.0
 10
915.6999953478472
 20
578.7004233827772
 30
0.0
 10
915.4793930211633
 20
578.3918990377224
 30
0.0
 10
915.2469957930875
 20
578.2394470954848
 30
0.0
 10
915.0922782891471
 20
578.1379528385645
 30
0.0
  0
LINE
  5
162
330
1F
100
AcDbEntity
  8
0
  6
Continuous
 62
     7
370
    15
100
AcDbLine
 10
915.0922782891
 20
578.1379528386
 30
0.0
 11
914.7451778188
 21
578.9085874579
 31
0.0
  0
SPLINE
  5
163
330
1F
100
AcDbEntity
  8
0
  6
Continuous
 62
     7
370
    15
100
AcDbSpline
210
0.0
220
0.0
230
1.0
 70
     8
 71
     3
 72
    12
 73
     8
 74
     0
 42
0.00000001
 43
0.00000001
 12
1.0
 22
0.0
 32
0.0
 13
1.0
 23
0.0
 33
0.0
 40
0.0
 40
0.0
 40
0.0
 40
0.0
 40
0.2504472301550477
 40
0.4997947000103543
 40
0.6239894148598814
 40
0.7503305927502617
 40
1.0
 40
1.0
 40
1.0
 40
1.0
 10
914.7451778188067
 20
578.9085874579134
 30
0.0
 10
914.8130000609181
 20
578.9613528420966
 30
0.0
 10
914.9483467250794
 20
579.0666519078617
 30
0.0
 10
915.0641222492158
 20
579.2603739082924
 30
0.0
 10
915.100640511892
 20
579.4365291603245
 30
0.0
 10
915.1020805137498
 20
579.6200919901693
 30
0.0
 10
915.052766224294
 20
579.7503408559998
 30
0.0
 10
915.0200217487289
 20
579.8368255413039
 30
0.0
  0
SPLINE
  5
164
330
1F
100
AcDbEntity
  8
0
  6
Continuous
 62
     7
370
    15
100
AcDbSpline
210
0.0
220
0.0
230
1.0
 70
     8
 71
     3
 72
    14
 73
    10
 74
     0
 42
0.00000001
 43
0.00000001
 12
1.0
 22
0.0
 32
0.0
 13
1.0
 23
0.0
 33
0.0
 40
0.0
 40
0.0
 40
0.0
 40
0.0
 40
0.2494054174661101
 40
0.3744722121319479
 40
0.4996112340058568
 40
0.6254136977070245
 40
0.7497958388636401
 40
0.8748051731654897
 40
1.0
 40
1.0
 40
1.0
 40
1.0
 10
915.0200182790022
 20
579.8368336822173
 30
0.0
 10
914.9758302203501
 20
579.9149899166251
 30
0.0
 10
914.9094836259521
 20
580.0323383619316
 30
0.0
 10
914.7735917077134
 20
580.1463457690311
 30
0.0
 10
914.6585551762352
 20
580.2080826452914
 30
0.0
 10
914.535936846789
 20
580.2482590411195
 30
0.0
 10
914.4094525476272
 20
580.2605303820123
 30
0.0
 10
914.2842981677286
 20
580.2454659997918
 30
0.0
 10
914.2076976743303
 20
580.2134208567543
 30
0.0
 10
914.1693690331803
 20
580.1973864066666
 30
0.0
  0
SPLINE
  5
165
330
1F
100
AcDbEntity
  8
0
  6
Continuous
 62
     7
370
    15
100
AcDbSpline
210
0.0
220
0.0
230
1.0
 70
     8
 71
     3
 72
    13
 73
     9
 74
     0
 42
0.00000001
 43
0.00000001
 12
1.0
 22
0.0
 32
0.0
 13
1.0
 23
0.0
 33
0.0
 40
0.0
 40
0.0
 40
0.0
 40
0.0
 40
0.124615208994629
 40
0.2499209492419977
 40
0.3736239356906724
 40
0.5000686572354863
 40
0.7496112235216714
 40
1.0
 40
1.0
 40
1.0
 40
1.0
 10
914.1693690331803
 20
580.1973864066666
 30
0.0
 10
914.1218874518762
 20
580.1699063301621
 30
0.0
 10
914.0266611792019
 20
580.1147939015856
 30
0.0
 10
913.9245802026379
 20
579.9795291517539
 30
0.0
 10
913.8605100148765
 20
579.8211365840612
 30
0.0
 10
913.8219932853007
 20
579.5928018745648
 30
0.0
 10
913.8614997879162
 20
579.2951545207985
 30
0.0
 10
913.9496891761775
 20
579.0768043119103
 30
0.0
 10
913.993858507316
 20
578.967444411919
 30
0.0
  0
LINE
  5
166
330
1F
100
AcDbEntity
  8
0
  6
Continuous
 62
     7
370
    15
100
AcDbLine
 10
913.9938585073
 20
578.9674444119
 30
0.0
 11
913.3796813005
 21
578.673172509
 31
0.0
  0
SPLINE
  5
167
330
1F
100
AcDbEntity
  8
0
  6
Continuous
 62
     7
370
    15
100
AcDbSpline
210
0.0
220
0.0
230
1.0
 70
     8
 71
     3
 72
    14
 73
    10
 74
     0
 42
0.00000001
 43
0.00000001
 12
1.0
 22
0.0
 32
0.0
 13
1.0
 23
0.0
 33
0.0
 40
0.0
 40
0.0
 40
0.0
 40
0.0
 40
0.250493584686836
 40
0.4999601479604769
 40
0.6249984150478937
 40
0.749958167263112
 40
0.8748152766615857
 40
0.9373873475845895
 40
1.0
 40
1.0
 40
1.0
 40
1.0
 10
913.3796808494243
 20
578.673172292854
 30
0.0
 10
913.3351463586439
 20
578.7496712478131
 30
0.0
 10
913.2462599680888
 20
578.9023555127136
 30
0.0
 10
913.0984757635744
 20
579.0715351237321
 30
0.0
 10
912.9476137149064
 20
579.1575141561033
 30
0.0
 10
912.8247267329241
 20
579.1943066626219
 30
0.0
 10
912.7193997669638
 20
579.1958732819993
 30
0.0
 10
912.6379810116547
 20
579.179844627111
 30
0.0
 10
912.5999520452388
 20
579.163718034379
 30
0.0
 10
912.5809313980511
 20
579.155652124111
 30
0.0
  0
SPLINE
  5
168
330
1F
100
AcDbEntity
  8
0
  6
Continuous
 62
     7
370
    15
100
AcDbSpline
210
0.0
220
0.0
230
1.0
 70
     8
 71
     3
 72
    14
 73
    10
 74
     0
 42
0.00000001
 43
0.00000001
 12
1.0
 22
0.0
 32
0.0
 13
1.0
 23
0.0
 33
0.0
 40
0.0
 40
0.0
 40
0.0
 40
0.0
 40
0.2488961579033067
 40
0.373977451183958
 40
0.4991302821849102
 40
0.6242583448165648
 40
0.7494501112119696
 40
0.8746564537558942
 40
1.0
 40
1.0
 40
1.0
 40
1.0
 10
912.5809313980511
 20
579.155652124111
 30
0.0
 10
912.5341761149042
 20
579.1263141053868
 30
0.0
 10
912.4639242405163
 20
579.082232438728
 30
0.0
 10
912.4032990531472
 20
578.9866433803371
 30
0.0
 10
912.3755396473535
 20
578.9056755523573
 30
0.0
 10
912.3620719830299
 20
578.8196796867261
 30
0.0
 10
912.3683423199511
 20
578.7317560835698
 30
0.0
 10
912.3879820065002
 20
578.6453716680154
 30
0.0
 10
912.410833298044
 20
578.5910154965226
 30
0.0
 10
912.4222652006174
 20
578.5638225277764
 30
0.0
  0
SPLINE
  5
169
330
1F
100
AcDbEntity
  8
0
  6
Continuous
 62
     7
370
    15
100
AcDbSpline
210
0.0
220
0.0
230
1.0
 70
     8
 71
     3
 72
    12
 73
     8
 74
     0
 42
0.00000001
 43
0.00000001
 12
1.0
 22
0.0
 32
0.0
 13
1.0
 23
0.0
 33
0.0
 40
0.0
 40
0.0
 40
0.0
 40
0.0
 40
0.2498073254944081
 40
0.4995419295727175
 40
0.7493933616130374
 40
0.8746510216452258
 40
1.0
 40
1.0
 40
1.0
 40
1.0
 10
912.4222680403635
 20
578.5638170256335
 30
0.0
 10
912.4521112358327
 20
578.51167652183
 30
0.0
 10
912.5117889391179
 20
578.407410692846
 30
0.0
 10
912.6543420582822
 20
578.2984235825028
 30
0.0
 10
912.7885021964383
 20
578.2459029057466
 30
0.0
 10
912.9005463474222
 20
578.2296341000495
 30
0.0
 10
912.9561760407582
 20
578.2344175198909
 30
0.0
 10
912.9840010228527
 20
578.2368101013246
 30
0.0
  0
LINE
  5
16A
330
1F
100
AcDbEntity
  8
0
  6
Continuous
 62
     7
370
    15
100
AcDbLine
 10
912.1562494092
 20
579.9115702398
 30
0.0
 11
912.152947664
 21
579.9098630033
 31
0.0
  0
LINE
  5
16B
330
1F
100
AcDbEntity
  8
0
  6
Continuous
 62
     7
370
    15
100
AcDbLine
 10
911.7235740495
 20
578.2583691983
 30
0.0
 11
911.7201062154
 21
578.2570181404
 31
0.0
  0
LINE
  5
16C
330
1F
100
AcDbEntity
  8
0
  6
Continuous
 62
     7
370
    15
100
AcDbLine
 10
912.5057691068
 20
577.4934544872
 30
0.0
 11
912.5021715599
 21
577.4923815993
 31
0.0
  0
LINE
  5
16D
330
1F
100
AcDbEntity
  8
0
  6
Continuous
 62
     7
370
    15
100
AcDbLine
 10
913.3796808494
 20
578.6731722929
 30
0.0
 11
913.3761692063
 21
578.6719151838
 31
0.0
  0
LINE
  5
16E
330
1F
100
AcDbEntity
  8
0
  6
Continuous
 62
     7
370
    15
100
AcDbLine
 10
912.5809313981
 20
579.1556521241
 30
0.0
 11
912.5775195046
 21
579.1541811012
 31
0.0
  0
LINE
  5
16F
330
1F
100
AcDbEntity
  8
0
  6
Continuous
 62
     7
370
    15
100
AcDbLine
 10
915.020018279
 20
579.8368336822
 30
0.0
 11
915.016550376
 21
579.8354827721
 31
0.0
  0
LINE
  5
170
330
1F
100
AcDbEntity
  8
0
  6
Continuous
 62
     7
370
    15
100
AcDbLine
 10
914.1693690332
 20
580.1973864067
 30
0.0
 11
914.1659916361
 21
580.195841406
 31
0.0
  0
LINE
  5
171
330
1F
100
AcDbEntity
  8
0
  6
Continuous
 62
     7
370
    15
100
AcDbLine
 10
914.7451778188
 20
578.9085874579
 30
0.0
 11
914.7416160731
 21
578.9074377941
 31
0.0
  0
LINE
  5
172
330
1F
100
AcDbEntity
  8
0
  6
Continuous
 62
     7
370
    15
100
AcDbLine
 10
915.0922782891
 20
578.1379528386
 30
0.0
 11
915.0886062014
 21
578.137039804
 31
0.0
  0
LINE
  5
173
330
1F
100
AcDbEntity
  8
0
  6
Continuous
 62
     7
370
    15
100
AcDbLine
 10
908.3389730857
 20
601.7011583281
 30
0.0
 11
926.8204071339
 21
562.0675951106
 31
0.0
  0
ARC
  5
174
330
1F
100
AcDbEntity
  8
0
  6
Continuous
 62
     7
370
    15
100
AcDbCircle
 10
926.0576986666
 20
561.7823051583
 30
0.0
 40
0.8143184653814521
100
AcDbArc
 50
308.0018952571
 51
20.5082342231
  0
ARC
  5
175
330
1F
100
AcDbEntity
  8
0
  6
Continuous
 62
     7
370
    15
100
AcDbCircle
 10
907.6301687504
 20
601.3002705915
 30
0.0
 40
0.8143184653791568
100
AcDbArc
 50
29.491765777
 51
101.9981047431
  0
LINE
  5
176
330
1F
100
AcDbEntity
  8
0
  6
Continuous
 62
     7
370
    15
100
AcDbLine
 10
906.0965238002
 20
593.8125802287
 30
0.0
 11
906.3902128613
 21
593.1610465112
 31
0.0
  0
SPLINE
  5
177
330
1F
100
AcDbEntity
  8
0
  6
Continuous
 62
     7
370
    15
100
AcDbSpline
210
0.0
220
0.0
230
1.0
 70
     8
 71
     3
 72
    13
 73
     9
 74
     0
 42
0.00000001
 43
0.00000001
 12
1.0
 22
0.0
 32
0.0
 13
1.0
 23
0.0
 33
0.0
 40
0.0
 40
0.0
 40
0.0
 40
0.0
 40
0.249861514215327
 40
0.3750499752468843
 40
0.500196688080673
 40
0.6260356875229852
 40
0.7505418622209408
 40
1.0
 40
1.0
 40
1.0
 40
1.0
 10
906.3902128612566
 20
593.1610465112333
 30
0.0
 10
906.194632656149
 20
593.135393329257
 30
0.0
 10
905.9010606296014
 20
593.0968870979336
 30
0.0
 10
905.4975837629008
 20
593.1592221228856
 30
0.0
 10
905.2066888360055
 20
593.25479399269
 30
0.0
 10
904.9423147991625
 20
593.3975807301189
 30
0.0
 10
904.6362750349206
 20
593.6401533947737
 30
0.0
 10
904.5032372974702
 20
593.8707307831954
 30
0.0
 10
904.4144926094573
 20
594.0245406629368
 30
0.0
  0
SPLINE
  5
178
330
1F
100
AcDbEntity
  8
0
  6
Continuous
 62
     7
370
    15
100
AcDbSpline
210
0.0
220
0.0
230
1.0
 70
     8
 71
     3
 72
    12
 73
     8
 74
     0
 42
0.00000001
 43
0.00000001
 12
1.0
 22
0.0
 32
0.0
 13
1.0
 23
0.0
 33
0.0
 40
0.0
 40
0.0
 40
0.0
 40
0.0
 40
0.2500632674072032
 40
0.3767833398324765
 40
0.5008646479452566
 40
0.7506161014966132
 40
1.0
 40
1.0
 40
1.0
 40
1.0
 10
904.4144926094573
 20
594.0245406629368
 30
0.0
 10
904.3632699943936
 20
594.1647220305005
 30
0.0
 10
904.2860902143373
 20
594.3759405929089
 30
0.0
 10
904.3144798585057
 20
594.6548987023766
 30
0.0
 10
904.4145546567469
 20
594.9133488214433
 30
0.0
 10
904.6629224895322
 20
595.1947033267153
 30
0.0
 10
904.9732554901739
 20
595.307595909074
 30
0.0
 10
905.1283077284409
 20
595.3640006341348
 30
0.0
  0
SPLINE
  5
179
330
1F
100
AcDbEntity
  8
0
  6
Continuous
 62
     7
370
    15
100
AcDbSpline
210
0.0
220
0.0
230
1.0
 70
     8
 71
     3
 72
    10
 73
     6
 74
     0
 42
0.00000001
 43
0.00000001
 12
1.0
 22
0.0
 32
0.0
 13
1.0
 23
0.0
 33
0.0
 40
0.0
 40
0.0
 40
0.0
 40
0.0
 40
0.2495242873690573
 40
0.4996000848870334
 40
1.0
 40
1.0
 40
1.0
 40
1.0
 10
905.1283077284409
 20
595.3640006341348
 30
0.0
 10
905.3094682329391
 20
595.3878497194863
 30
0.0
 10
905.672189651282
 20
595.4356006025438
 30
0.0
 10
906.4270158437811
 20
595.3221012060421
 30
0.0
 10
906.9500873322129
 20
595.1227884706103
 30
0.0
 10
907.2988593497533
 20
594.9898913305532
 30
0.0
  0
LINE
  5
17A
330
1F
100
AcDbEntity
  8
0
  6
Continuous
 62
     7
370
    15
100
AcDbLine
 10
907.2988593498
 20
594.9898913306
 30
0.0
 11
907.9658471505
 21
594.7203959177
 31
0.0
  0
LINE
  5
17B
330
1F
100
AcDbEntity
  8
0
  6
Continuous
 62
     7
370
    15
100
AcDbLine
 10
907.9658471505
 20
594.7203959177
 30
0.0
 11
907.3907736296
 21
595.9202668257
 31
0.0
  0
LINE
  5
17C
330
1F
100
AcDbEntity
  8
0
  6
Continuous
 62
     7
370
    15
100
AcDbLine
 10
907.3907736296
 20
595.9202668257
 30
0.0
 11
908.1153547421
 21
596.0882459722
 31
0.0
  0
LINE
  5
17D
330
1F
100
AcDbEntity
  8
0
  6
Continuous
 62
     7
370
    15
100
AcDbLine
 10
908.1153552398
 20
596.0882460875
 30
0.0
 11
909.2233673571
 21
593.7127080074
 31
0.0
  0
LINE
  5
17E
330
1F
100
AcDbEntity
  8
0
  6
Continuous
 62
     7
370
    15
100
AcDbLine
 10
909.2233673571
 20
593.7127080074
 30
0.0
 11
908.848091078
 21
593.6255147251
 31
0.0
  0
LINE
  5
17F
330
1F
100
AcDbEntity
  8
0
  6
Continuous
 62
     7
370
    15
100
AcDbLine
 10
908.848091078
 20
593.6255147251
 30
0.0
 11
907.0603030936
 21
594.4059319978
 31
0.0
  0
SPLINE
  5
180
330
1F
100
AcDbEntity
  8
0
  6
Continuous
 62
     7
370
    15
100
AcDbSpline
210
0.0
220
0.0
230
1.0
 70
     8
 71
     3
 72
    10
 73
     6
 74
     0
 42
0.00000001
 43
0.00000001
 12
1.0
 22
0.0
 32
0.0
 13
1.0
 23
0.0
 33
0.0
 40
0.0
 40
0.0
 40
0.0
 40
0.0
 40
0.5008654000467235
 40
0.7508974515439334
 40
1.0
 40
1.0
 40
1.0
 40
1.0
 10
907.0603030936029
 20
594.4059319978372
 30
0.0
 10
906.8106133828908
 20
594.509230611699
 30
0.0
 10
906.436278546759
 20
594.6640959026324
 30
0.0
 10
905.895094190996
 20
594.7864166123801
 30
0.0
 10
905.6287984897025
 20
594.7607292983104
 30
0.0
 10
905.495898590875
 20
594.7479095591091
 30
0.0
  0
SPLINE
  5
181
330
1F
100
AcDbEntity
  8
0
  6
Continuous
 62
     7
370
    15
100
AcDbSpline
210
0.0
220
0.0
230
1.0
 70
     8
 71
     3
 72
    14
 73
    10
 74
     0
 42
0.00000001
 43
0.00000001
 12
1.0
 22
0.0
 32
0.0
 13
1.0
 23
0.0
 33
0.0
 40
0.0
 40
0.0
 40
0.0
 40
0.0
 40
0.2492125570070187
 40
0.3742623457829501
 40
0.4993439306182732
 40
0.6236829845120585
 40
0.749554350729404
 40
0.8746949963606323
 40
1.0
 40
1.0
 40
1.0
 40
1.0
 10
905.495898590875
 20
594.7479095591091
 30
0.0
 10
905.4246049129963
 20
594.7250282693299
 30
0.0
 10
905.3175375186289
 20
594.690665614052
 30
0.0
 10
905.2142655668675
 20
594.6020701740842
 30
0.0
 10
905.1575816135512
 20
594.5236495195767
 30
0.0
 10
905.1238190152764
 20
594.435287467951
 30
0.0
 10
905.1150386338452
 20
594.3413176572229
 30
0.0
 10
905.1295596926036
 20
594.2453416296719
 30
0.0
 10
905.1553909198611
 20
594.1833621922432
 30
0.0
 10
905.1683150095187
 20
594.1523521361485
 30
0.0
  0
SPLINE
  5
182
330
1F
100
AcDbEntity
  8
0
  6
Continuous
 62
     7
370
    15
100
AcDbSpline
210
0.0
220
0.0
230
1.0
 70
     8
 71
     3
 72
    13
 73
     9
 74
     0
 42
0.00000001
 43
0.00000001
 12
1.0
 22
0.0
 32
0.0
 13
1.0
 23
0.0
 33
0.0
 40
0.0
 40
0.0
 40
0.0
 40
0.0
 40
0.1251920359843597
 40
0.2502609561235469
 40
0.3726017186890743
 40
0.5006143358108918
 40
0.7498741992883081
 40
1.0
 40
1.0
 40
1.0
 40
1.0
 10
905.168318368023
 20
594.1523453513828
 30
0.0
 10
905.1872529547861
 20
594.117288739258
 30
0.0
 10
905.2251035077375
 20
594.04720999024
 30
0.0
 10
905.3150417626896
 20
593.9555947438228
 30
0.0
 10
905.4277160291457
 20
593.8819677554637
 30
0.0
 10
905.5964485883911
 20
593.8096836661339
 30
0.0
 10
905.8319447017523
 20
593.7730141502167
 30
0.0
 10
906.0082288748139
 20
593.7993762985017
 30
0.0
 10
906.0965238001628
 20
593.8125802286925
 30
0.0
  0
LINE
  5
183
330
1F
100
AcDbEntity
  8
0
  6
Continuous
 62
     7
370
    15
100
AcDbLine
 10
904.4144926095
 20
594.0245406629
 30
0.0
 11
904.4132081047
 21
594.0185074402
 31
0.0
  0
LINE
  5
184
330
1F
100
AcDbEntity
  8
0
  6
Continuous
 62
     7
370
    15
100
AcDbLine
 10
906.3902128613
 20
593.1610465112
 30
0.0
 11
906.3887600575
 21
593.1553742069
 31
0.0
  0
LINE
  5
185
330
1F
100
AcDbEntity
  8
0
  6
Continuous
 62
     7
370
    15
100
AcDbLine
 10
907.0603030936
 20
594.4059319978
 30
0.0
 11
907.0589887746
 21
594.3999627121
 31
0.0
  0
LINE
  5
186
330
1F
100
AcDbEntity
  8
0
  6
Continuous
 62
     7
370
    15
100
AcDbLine
 10
908.848091078
 20
593.6255147251
 30
0.0
 11
908.8466191012
 21
593.6198835374
 31
0.0
  0
LINE
  5
187
330
1F
100
AcDbEntity
  8
0
  6
Continuous
 62
     7
370
    15
100
AcDbLine
 10
905.4958985909
 20
594.7479095591
 30
0.0
 11
905.494674304
 21
594.7417471988
 31
0.0
  0
LINE
  5
188
330
1F
100
AcDbEntity
  8
0
  6
Continuous
 62
     7
370
    15
100
AcDbLine
 10
918.9933276199
 20
562.8264632551
 30
0.0
 11
918.6919341891
 21
563.4568278002
 31
0.0
  0
LINE
  5
189
330
1F
100
AcDbEntity
  8
0
  6
Continuous
 62
     7
370
    15
100
AcDbLine
 10
918.6919341891
 20
563.4568278002
 30
0.0
 11
920.8405682315
 21
565.1398924248
 31
0.0
  0
LINE
  5
18A
330
1F
100
AcDbEntity
  8
0
  6
Continuous
 62
     7
370
    15
100
AcDbLine
 10
920.8405682315
 20
565.1398924248
 30
0.0
 11
920.6953208327
 21
565.4374305952
 31
0.0
  0
LINE
  5
18B
330
1F
100
AcDbEntity
  8
0
  6
Continuous
 62
     7
370
    15
100
AcDbLine
 10
920.6953208327
 20
565.4374305952
 30
0.0
 11
921.2825168981
 21
565.8974065002
 31
0.0
  0
LINE
  5
18C
330
1F
100
AcDbEntity
  8
0
  6
Continuous
 62
     7
370
    15
100
AcDbLine
 10
921.2825168981
 20
565.8974065002
 30
0.0
 11
921.4278512785
 21
565.5998201765
 31
0.0
  0
LINE
  5
18D
330
1F
100
AcDbEntity
  8
0
  6
Continuous
 62
     7
370
    15
100
AcDbLine
 10
921.4278512785
 20
565.5998201765
 30
0.0
 11
922.1126163915
 21
566.1363260471
 31
0.0
  0
LINE
  5
18E
330
1F
100
AcDbEntity
  8
0
  6
Continuous
 62
     7
370
    15
100
AcDbLine
 10
922.1126163915
 20
566.1363260471
 30
0.0
 11
922.408726109
 21
565.5191425672
 31
0.0
  0
LINE
  5
18F
330
1F
100
AcDbEntity
  8
0
  6
Continuous
 62
     7
370
    15
100
AcDbLine
 10
922.408726109
 20
565.5191425672
 30
0.0
 11
921.7238392107
 21
564.9827068607
 31
0.0
  0
LINE
  5
190
330
1F
100
AcDbEntity
  8
0
  6
Continuous
 62
     7
370
    15
100
AcDbLine
 10
921.7238392107
 20
564.9827068607
 30
0.0
 11
922.3693383995
 21
563.5624575645
 31
0.0
  0
LINE
  5
191
330
1F
100
AcDbEntity
  8
0
  6
Continuous
 62
     7
370
    15
100
AcDbLine
 10
922.3693383995
 20
563.5624575645
 30
0.0
 11
921.7821782179
 21
563.1024525065
 31
0.0
  0
LINE
  5
192
330
1F
100
AcDbEntity
  8
0
  6
Continuous
 62
     7
370
    15
100
AcDbLine
 10
921.7821782179
 20
563.1024525065
 30
0.0
 11
918.9933281504
 21
562.8264633034
 31
0.0
  0
LINE
  5
193
330
1F
100
AcDbEntity
  8
0
  6
Continuous
 62
     7
370
    15
100
AcDbLine
 10
921.4826604289
 20
563.7745353349
 30
0.0
 11
921.1364566188
 21
564.5228365152
 31
0.0
  0
LINE
  5
194
330
1F
100
AcDbEntity
  8
0
  6
Continuous
 62
     7
370
    15
100
AcDbLine
 10
921.1364566188
 20
564.5228365152
 30
0.0
 11
920.0177051269
 21
563.646795537
 31
0.0
  0
LINE
  5
195
330
1F
100
AcDbEntity
  8
0
  6
Continuous
 62
     7
370
    15
100
AcDbLine
 10
920.0177051269
 20
563.646795537
 30
0.0
 11
921.4826604289
 21
563.7745353349
 31
0.0
  0
LINE
  5
196
330
1F
100
AcDbEntity
  8
0
  6
Continuous
 62
     7
370
    15
100
AcDbLine
 10
920.8405682315
 20
565.1398924248
 30
0.0
 11
920.835048537
 21
565.1429415956
 31
0.0
  0
LINE
  5
197
330
1F
100
AcDbEntity
  8
0
  6
Continuous
 62
     7
370
    15
100
AcDbLine
 10
918.6919341891
 20
563.4568278002
 30
0.0
 11
918.6864102695
 21
563.4598860318
 31
0.0
  0
LINE
  5
198
330
1F
100
AcDbEntity
  8
0
  6
Continuous
 62
     7
370
    15
100
AcDbLine
 10
918.9933276199
 20
562.8264632551
 30
0.0
 11
918.9877156996
 21
562.8297102049
 31
0.0
  0
LINE
  5
199
330
1F
100
AcDbEntity
  8
0
  6
Continuous
 62
     7
370
    15
100
AcDbLine
 10
909.2233673571
 20
593.7127080074
 30
0.0
 11
909.2218944778
 21
593.7070787551
 31
0.0
  0
LINE
  5
19A
330
1F
100
AcDbEntity
  8
0
  6
Continuous
 62
     7
370
    15
100
AcDbLine
 10
921.2825168981
 20
565.8974065002
 30
0.0
 11
921.2770420689
 21
565.9003594573
 31
0.0
  0
LINE
  5
19B
330
1F
100
AcDbEntity
  8
0
  6
Continuous
 62
     7
370
    15
100
AcDbLine
 10
920.6953208327
 20
565.4374305952
 30
0.0
 11
920.6898443744
 21
565.4403870459
 31
0.0
  0
LINE
  5
19C
330
1F
100
AcDbEntity
  8
0
  6
Continuous
 62
     7
370
    15
100
AcDbLine
 10
907.3907736296
 20
595.9202668257
 30
0.0
 11
907.3896473101
 21
595.9138943736
 31
0.0
  0
LINE
  5
19D
330
1F
100
AcDbEntity
  8
0
  6
Continuous
 62
     7
370
    15
100
AcDbLine
 10
920.0120955854
 20
563.6500373854
 30
0.0
 11
921.4769442777
 21
563.7780058088
 31
0.0
  0
LINE
  5
19E
330
1F
100
AcDbEntity
  8
0
  6
Continuous
 62
     7
370
    15
100
AcDbLine
 10
921.4769442777
 20
563.7780058088
 30
0.0
 11
921.4826604289
 21
563.7745353349
 31
0.0
  0
LINE
  5
19F
330
1F
100
AcDbEntity
  8
0
  6
Continuous
 62
     7
370
    15
100
AcDbLine
 10
921.4769442777
 20
563.7780058088
 30
0.0
 11
921.130847674
 21
564.5260770841
 31
0.0
  0
LINE
  5
1A0
330
1F
100
AcDbEntity
  8
0
  6
Continuous
 62
     7
370
    15
100
AcDbLine
 10
922.1126163915
 20
566.1363260471
 30
0.0
 11
922.1070993434
 21
566.1393695428
 31
0.0
  0
SPLINE
  5
1A1
330
1F
100
AcDbEntity
  8
0
  6
Continuous
 62
     7
370
    15
100
AcDbSpline
210
0.0
220
0.0
230
1.0
 70
     8
 71
     3
 72
    12
 73
     8
 74
     0
 42
0.00000001
 43
0.00000001
 12
1.0
 22
0.0
 32
0.0
 13
1.0
 23
0.0
 33
0.0
 40
0.0
 40
0.0
 40
0.0
 40
0.0
 40
0.030471745951586
 40
0.088813566858633
 40
0.3925556175487431
 40
0.6962774394174135
 40
1.0
 40
1.0
 40
1.0
 40
1.0
 10
908.3933564524875
 20
602.6652013897494
 30
0.0
 10
908.3890972308628
 20
602.6749141749115
 30
0.0
 10
908.376683217398
 20
602.7032232549275
 30
0.0
 10
908.3148346804096
 20
602.8266949092533
 30
0.0
 10
908.1691010980034
 20
603.0235067521311
 30
0.0
 10
907.8991737236464
 20
603.2388292193511
 30
0.0
 10
907.6912557023821
 20
603.308964468094
 30
0.0
 10
907.5872965653253
 20
603.3440321351111
 30
0.0
  0
SPLINE
  5
1A2
330
1F
100
AcDbEntity
  8
0
  6
Continuous
 62
     7
370
    15
100
AcDbSpline
210
0.0
220
0.0
230
1.0
 70
     8
 71
     3
 72
     9
 73
     5
 74
     0
 42
0.00000001
 43
0.00000001
 12
1.0
 22
0.0
 32
0.0
 13
1.0
 23
0.0
 33
0.0
 40
0.0
 40
0.0
 40
0.0
 40
0.0
 40
0.4684410573252
 40
1.0
 40
1.0
 40
1.0
 40
1.0
 10
908.3933564524875
 20
602.6652013897494
 30
0.0
 10
908.3161583843132
 20
602.5309875235281
 30
0.0
 10
908.1513605576343
 20
602.2444757754166
 30
0.0
 10
908.2738583099607
 20
601.889727791376
 30
0.0
 10
908.3389730856672
 20
601.7011583280631
 30
0.0
  0
SPLINE
  5
1A3
330
1F
100
AcDbEntity
  8
0
  6
Continuous
 62
     7
370
    15
100
AcDbSpline
210
0.0
220
0.0
230
1.0
 70
     8
 71
     3
 72
    11
 73
     7
 74
     0
 42
0.00000001
 43
0.00000001
 12
1.0
 22
0.0
 32
0.0
 13
1.0
 23
0.0
 33
0.0
 40
0.0
 40
0.0
 40
0.0
 40
0.0
 40
0.3704320937874988
 40
0.7442498469290937
 40
0.9442480537680358
 40
1.0
 40
1.0
 40
1.0
 40
1.0
 10
907.5637309948356
 20
603.3636703569218
 30
0.0
 10
907.5652205609954
 20
603.3608832933646
 30
0.0
 10
907.5682133075878
 20
603.355283693166
 30
0.0
 10
907.5754804879091
 20
603.3485818016204
 30
0.0
 10
907.5830035627756
 20
603.3451669066652
 30
0.0
 10
907.5865282133693
 20
603.3442352339756
 30
0.0
 10
907.5872965653253
 20
603.3440321351111
 30
0.0
  0
SPLINE
  5
1A4
330
1F
100
AcDbEntity
  8
0
  6
Continuous
 62
     7
370
    15
100
AcDbSpline
210
0.0
220
0.0
230
1.0
 70
     8
 71
     3
 72
     9
 73
     5
 74
     0
 42
0.00000001
 43
0.00000001
 12
1.0
 22
0.0
 32
0.0
 13
1.0
 23
0.0
 33
0.0
 40
0.0
 40
0.0
 40
0.0
 40
0.0
 40
0.5315589426748052
 40
0.9999999999999999
 40
0.9999999999999999
 40
0.9999999999999999
 40
0.9999999999999999
 10
926.8204071339179
 20
562.0675951106492
 30
0.0
 10
926.9230047523982
 20
561.8965041839725
 30
0.0
 10
927.1160174368696
 20
561.5746378528077
 30
0.0
 10
927.4414281704901
 20
561.5167141104596
 30
0.0
 10
927.5938639186124
 20
561.4895802513497
 30
0.0
  0
SPLINE
  5
1A5
330
1F
100
AcDbEntity
  8
0
  6
Continuous
 62
     7
370
    15
100
AcDbSpline
210
0.0
220
0.0
230
1.0
 70
     8
 71
     3
 72
    12
 73
     8
 74
     0
 42
0.00000001
 43
0.00000001
 12
1.0
 22
0.0
 32
0.0
 13
1.0
 23
0.0
 33
0.0
 40
0.0
 40
0.0
 40
0.0
 40
0.0
 40
0.0304717459459302
 40
0.0888135668586185
 40
0.392555617548757
 40
0.6962774394174213
 40
1.0
 40
1.0
 40
1.0
 40
1.0
 10
927.5938639186124
 20
561.4895802513497
 30
0.0
 10
927.5985665688257
 20
561.4800742403361
 30
0.0
 10
927.6122730082228
 20
561.4523678284286
 30
0.0
 10
927.6671023096372
 20
561.325623050806
 30
0.0
 10
927.72419318714
 20
561.0874764357837
 30
0.0
 10
927.7156337948762
 20
560.7422934565959
 30
0.0
 10
927.6357133845438
 20
560.5379369428881
 30
0.0
 10
927.5957531307818
 20
560.4357585617751
 30
0.0
  0
SPLINE
  5
1A6
330
1F
100
AcDbEntity
  8
0
  6
Continuous
 62
     7
370
    15
100
AcDbSpline
210
0.0
220
0.0
230
1.0
 70
     8
 71
     3
 72
    10
 73
     6
 74
     0
 42
0.00000001
 43
0.00000001
 12
1.0
 22
0.0
 32
0.0
 13
1.0
 23
0.0
 33
0.0
 40
0.0
 40
0.0
 40
0.0
 40
0.0
 40
0.2117958997117583
 40
0.4880069094703085
 40
1.0
 40
1.0
 40
1.0
 40
1.0
 10
927.5957531307819
 20
560.4357585617752
 30
0.0
 10
927.5946381269091
 20
560.4330183430293
 30
0.0
 10
927.5920690044912
 20
560.426704501811
 30
0.0
 10
927.5916650251368
 20
560.4155379436515
 30
0.0
 10
927.5940803222092
 20
560.4092000088826
 30
0.0
 10
927.5956492247462
 20
560.4050830817964
 30
0.0
  0
SPLINE
  5
1A7
330
1F
100
AcDbEntity
  8
0
  6
Continuous
 62
     7
370
    15
100
AcDbSpline
210
0.0
220
0.0
230
1.0
 70
     8
 71
     3
 72
    11
 73
     7
 74
     0
 42
0.00000001
 43
0.00000001
 12
1.0
 22
0.0
 32
0.0
 13
1.0
 23
0.0
 33
0.0
 40
0.0
 40
0.0
 40
0.0
 40
0.0
 40
0.3658281109894454
 40
0.7252591430831296
 40
0.9820690181776757
 40
1.0
 40
1.0
 40
1.0
 40
1.0
 10
910.8865704321416
 20
603.2125352021096
 30
0.0
 10
910.5062989647959
 20
603.2209945044083
 30
0.0
 10
909.7524056737628
 20
603.2377651848229
 30
0.0
 10
908.8958610323515
 20
603.0396178919286
 30
0.0
 10
908.5146398431377
 20
602.8006362999373
 30
0.0
 10
908.4007870624241
 20
602.6734990138842
 30
0.0
 10
908.3933564524875
 20
602.6652013897494
 30
0.0
  0
LINE
  5
1A8
330
1F
100
AcDbEntity
  8
0
  6
Continuous
 62
     7
370
    15
100
AcDbLine
 10
910.8865704321
 20
603.2125352021
 30
0.0
 11
929.6157529985
 21
563.047673573
 31
0.0
  0
SPLINE
  5
1A9
330
1F
100
AcDbEntity
  8
0
  6
Continuous
 62
     7
370
    15
100
AcDbSpline
210
0.0
220
0.0
230
1.0
 70
     8
 71
     3
 72
    11
 73
     7
 74
     0
 42
0.00000001
 43
0.00000001
 12
1.0
 22
0.0
 32
0.0
 13
1.0
 23
0.0
 33
0.0
 40
0.0
 40
0.0
 40
0.0
 40
0.0
 40
0.2357948537758742
 40
0.2749019968044848
 40
0.6342531696138465
 40
1.0
 40
1.0
 40
1.0
 40
1.0
 10
927.5938639186126
 20
561.4895802513497
 30
0.0
 10
927.7461424116706
 20
561.5127628627431
 30
0.0
 10
927.9236766586727
 20
561.5397903659353
 30
0.0
 10
928.3577354367283
 20
561.7521852525728
 30
0.0
 10
928.9067200755501
 20
562.1621815187028
 30
0.0
 10
929.3780229967506
 20
562.7507789989972
 30
0.0
 10
929.6157529985175
 20
563.0476735730304
 30
0.0
  0
SPLINE
  5
1AA
330
1F
100
AcDbEntity
  8
0
  6
Continuous
 62
     7
370
    15
100
AcDbSpline
210
0.0
220
0.0
230
1.0
 70
     8
 71
     3
 72
    12
 73
     8
 74
     0
 42
0.00000001
 43
0.00000001
 12
1.0
 22
0.0
 32
0.0
 13
1.0
 23
0.0
 33
0.0
 40
0.0
 40
0.0
 40
0.0
 40
0.0
 40
0.2238925571851071
 40
0.4477848984198825
 40
0.6716824862031452
 40
0.8955821585469268
 40
1.0
 40
1.0
 40
1.0
 40
1.0
 10
906.2688852332044
 20
607.722903218861
 30
0.0
 10
906.2410174720734
 20
607.7225677251079
 30
0.0
 10
906.1852819766907
 20
607.7218967379254
 30
0.0
 10
906.1133205106639
 20
607.721293325536
 30
0.0
 10
906.0609280430334
 20
607.7209646347316
 30
0.0
 10
906.03759269879
 20
607.72087044625
 30
0.0
 10
906.0356440378586
 20
607.7208804985486
 30
0.0
 10
906.035024287283
 20
607.7208836955737
 30
0.0
  0
LINE
  5
1AB
330
1F
100
AcDbEntity
  8
0
  6
Continuous
 62
     7
370
    15
100
AcDbLine
 10
906.2688852332
 20
607.7229032189
 30
0.0
 11
925.3637157591
 21
607.9309907606
 31
0.0
  0
LINE
  5
1AC
330
1F
100
AcDbEntity
  8
0
  6
Continuous
 62
     7
370
    15
100
AcDbLine
 10
925.3637157591
 20
607.9309907606
 30
0.0
 11
926.8423521158
 21
607.9493695742
 31
0.0
  0
LINE
  5
1AD
330
1F
100
AcDbEntity
  8
0
  6
Continuous
 62
     7
370
    15
100
AcDbLine
 10
928.2740466611
 20
604.8790907137
 30
0.0
 11
926.8423521158
 21
607.9493695742
 31
0.0
  0
LINE
  5
1AE
330
1F
100
AcDbEntity
  8
0
  6
Continuous
 62
     7
370
    15
100
AcDbLine
 10
910.7570767533
 20
604.4199449299
 30
0.0
 11
928.2740466611
 21
604.8790907137
 31
0.0
  0
SPLINE
  5
1AF
330
1F
100
AcDbEntity
  8
0
  6
Continuous
 62
     7
370
    15
100
AcDbSpline
210
0.0
220
0.0
230
1.0
 70
     8
 71
     3
 72
    10
 73
     6
 74
     0
 42
0.00000001
 43
0.00000001
 12
1.0
 22
0.0
 32
0.0
 13
1.0
 23
0.0
 33
0.0
 40
0.0
 40
0.0
 40
0.0
 40
0.0
 40
0.2857669779336491
 40
0.6445560549562839
 40
1.0
 40
1.0
 40
1.0
 40
1.0
 10
907.5872965653253
 20
603.3440321351111
 30
0.0
 10
907.7667979347291
 20
603.5160608280804
 30
0.0
 10
908.1716686981703
 20
603.9040767439898
 30
0.0
 10
909.304631281604
 20
604.2912965691424
 30
0.0
 10
910.2744423091854
 20
604.3771962475755
 30
0.0
 10
910.757076753324
 20
604.4199449299199
 30
0.0
  0
ARC
  5
1B0
330
1F
100
AcDbEntity
  8
0
  6
Continuous
 62
     7
370
    15
100
AcDbCircle
 10
906.6973848175
 20
603.3738974728
 30
0.0
 40
4.192292200781107
100
AcDbArc
 50
357.794127652
 51
14.4489224795
  0
LINE
  5
1B1
330
1F
100
AcDbEntity
  8
0
  6
Continuous
 62
     7
370
    15
100
AcDbLine
 10
942.068862871
 20
575.2960118844
 30
0.0
 11
930.4574455788
 21
562.1723676471
 31
0.0
  0
SPLINE
  5
1B2
330
1F
100
AcDbEntity
  8
0
  6
Continuous
 62
     7
370
    15
100
AcDbSpline
210
0.0
220
0.0
230
1.0
 70
     8
 71
     3
 72
    10
 73
     6
 74
     0
 42
0.00000001
 43
0.00000001
 12
1.0
 22
0.0
 32
0.0
 13
1.0
 23
0.0
 33
0.0
 40
0.0
 40
0.0
 40
0.0
 40
0.0
 40
0.3554439450437179
 40
0.714233022066339
 40
1.0
 40
1.0
 40
1.0
 40
1.0
 10
930.4574455787964
 20
562.1723676471038
 30
0.0
 10
930.1144667475359
 20
561.8301265364545
 30
0.0
 10
929.4252812639405
 20
561.1424234368719
 30
0.0
 10
928.4003993577486
 20
560.5234238514001
 30
0.0
 10
927.8429160112618
 20
560.4626866759894
 30
0.0
 10
927.5957531307818
 20
560.4357585617751
 30
0.0
  0
ARC
  5
1B3
330
1F
100
AcDbEntity
  8
0
  6
Continuous
 62
     7
370
    15
100
AcDbCircle
 10
927.0466070615
 20
559.7348495434
 30
0.0
 40
4.192292200809227
100
AcDbArc
 50
35.5510775206
 51
52.2058723479
  0
LINE
  5
1B4
330
1F
100
AcDbEntity
  8
0
  6
Continuous
 62
     7
370
    15
100
AcDbLine
 10
899.6546258253
 20
604.4011820748
 30
0.0
 11
899.4252197886
 21
604.8928018622
 31
0.0
  0
LINE
  5
1B5
330
1F
100
AcDbEntity
  8
0
  6
Continuous
 62
     7
370
    15
100
AcDbLine
 10
899.4252197886
 20
604.8928018622
 30
0.0
 11
903.843152416
 21
605.2850223028
 31
0.0
  0
LINE
  5
1B6
330
1F
100
AcDbEntity
  8
0
  6
Continuous
 62
     7
370
    15
100
AcDbLine
 10
903.843152416
 20
605.2850223028
 30
0.0
 11
903.9956221701
 21
604.9639148458
 31
0.0
  0
LINE
  5
1B7
330
1F
100
AcDbEntity
  8
0
  6
Continuous
 62
     7
370
    15
100
AcDbLine
 10
903.9956221701
 20
604.9639148458
 30
0.0
 11
900.3680523286
 21
604.6416634881
 31
0.0
  0
LINE
  5
1B8
330
1F
100
AcDbEntity
  8
0
  6
Continuous
 62
     7
370
    15
100
AcDbLine
 10
900.3680523286
 20
604.6416634881
 30
0.0
 11
900.5330760923
 21
604.2690532145
 31
0.0
  0
LINE
  5
1B9
330
1F
100
AcDbEntity
  8
0
  6
Continuous
 62
     7
370
    15
100
AcDbLine
 10
900.5330760923
 20
604.2690532145
 30
0.0
 11
899.6546258253
 21
604.4011820748
 31
0.0
  0
LINE
  5
1BA
330
1F
100
AcDbEntity
  8
0
  6
Continuous
 62
     7
370
    15
100
AcDbLine
 10
899.6546258253
 20
604.4011820748
 30
0.0
 11
899.6547788609
 21
604.3920660369
 31
0.0
  0
LINE
  5
1BB
330
1F
100
AcDbEntity
  8
0
  6
Continuous
 62
     7
370
    15
100
AcDbLine
 10
900.5330760923
 20
604.2690532145
 30
0.0
 11
900.5332005065
 21
604.2599985553
 31
0.0
  0
LINE
  5
1BC
330
1F
100
AcDbEntity
  8
0
  6
Continuous
 62
     7
370
    15
100
AcDbLine
 10
928.3413731084
 20
603.8049990441
 30
0.0
 11
910.8865704321
 21
603.2125352021
 31
0.0
  0
ARC
  5
1BD
330
1F
100
AcDbEntity
  8
0
  6
Continuous
 62
     7
370
    15
100
AcDbCircle
 10
922.6929246519
 20
603.9900976914
 30
0.0
 40
5.651480467553173
100
AcDbArc
 50
358.1230991873
 51
9.0503686318
  0
LINE
  5
1BE
330
1F
100
AcDbEntity
  8
0
  6
Continuous
 62
     7
370
    15
100
AcDbLine
 10
929.6157529985
 20
563.047673573
 30
0.0
 11
941.2893375222
 21
576.0379997521
 31
0.0
  0
ARC
  5
1BF
330
1F
100
AcDbEntity
  8
0
  6
Continuous
 62
     7
370
    15
100
AcDbCircle
 10
937.8003786306
 20
571.5920580827
 30
0.0
 40
5.651480467601039
100
AcDbArc
 50
40.9496313683
 51
51.8769008127
  0
LINE
  5
1C0
330
1F
100
AcDbEntity
  8
0
  6
Continuous
 62
     7
370
    15
100
AcDbLine
 10
941.2893375222
 20
576.0379997521
 30
0.0
 11
928.3413731084
 21
603.8049990441
 31
0.0
  0
LINE
  5
1C1
330
1F
100
AcDbEntity
  8
0
  6
Continuous
 62
     7
370
    15
100
AcDbLine
 10
899.4252197886
 20
604.8928018622
 30
0.0
 11
899.4254410413
 21
604.8835395321
 31
0.0
  0
LINE
  5
1C2
330
1F
100
AcDbEntity
  8
0
  6
Continuous
 62
     7
370
    15
100
AcDbLine
 10
903.9956221701
 20
604.9639148458
 30
0.0
 11
903.9957980641
 21
604.9547497879
 31
0.0
  0
LINE
  5
1C3
330
1F
100
AcDbEntity
  8
0
  6
Continuous
 62
     7
370
    15
100
AcDbLine
 10
923.9014453654
 20
552.4607431145
 30
0.0
 11
923.5610573679
 21
553.1561973643
 31
0.0
  0
LINE
  5
1C4
330
1F
100
AcDbEntity
  8
0
  6
Continuous
 62
     7
370
    15
100
AcDbLine
 10
923.5610573679
 20
553.1561973643
 30
0.0
 11
924.1071660678
 21
553.7130283942
 31
0.0
  0
LINE
  5
1C5
330
1F
100
AcDbEntity
  8
0
  6
Continuous
 62
     7
370
    15
100
AcDbLine
 10
924.1071660678
 20
553.7130283942
 30
0.0
 11
924.354356608
 21
553.2194878678
 31
0.0
  0
LINE
  5
1C6
330
1F
100
AcDbEntity
  8
0
  6
Continuous
 62
     7
370
    15
100
AcDbLine
 10
924.354356608
 20
553.2194878678
 30
0.0
 11
924.949316575
 21
553.7386668959
 31
0.0
  0
LINE
  5
1C7
330
1F
100
AcDbEntity
  8
0
  6
Continuous
 62
     7
370
    15
100
AcDbLine
 10
924.9493169047
 20
553.7386672945
 30
0.0
 11
924.8755949277
 21
553.8020238006
 31
0.0
  0
SPLINE
  5
1C8
330
1F
100
AcDbEntity
  8
0
  6
Continuous
 62
     7
370
    15
100
AcDbSpline
210
0.0
220
0.0
230
1.0
 70
     8
 71
     3
 72
    13
 73
     9
 74
     0
 42
0.00000001
 43
0.00000001
 12
1.0
 22
0.0
 32
0.0
 13
1.0
 23
0.0
 33
0.0
 40
0.0
 40
0.0
 40
0.0
 40
0.0
 40
0.2493537827004315
 40
0.3731502119427816
 40
0.4998460068465714
 40
0.6255465646135228
 40
0.7503082828075996
 40
1.0
 40
1.0
 40
1.0
 40
1.0
 10
924.8755949277239
 20
553.8020238006159
 30
0.0
 10
924.8572498786402
 20
553.8778149892144
 30
0.0
 10
924.8297970809344
 20
553.991234155279
 30
0.0
 10
924.9041817672878
 20
554.240073492553
 30
0.0
 10
924.9971188737208
 20
554.448558427337
 30
0.0
 10
925.1247032554852
 20
554.6721604749085
 30
0.0
 10
925.3347314187947
 20
554.9771151260115
 30
0.0
 10
925.5306830476153
 20
555.1890382980997
 30
0.0
 10
925.6613468206325
 20
555.3303521591862
 30
0.0
  0
SPLINE
  5
1C9
330
1F
100
AcDbEntity
  8
0
  6
Continuous
 62
     7
370
    15
100
AcDbSpline
210
0.0
220
0.0
230
1.0
 70
     8
 71
     3
 72
    11
 73
     7
 74
     0
 42
0.00000001
 43
0.00000001
 12
1.0
 22
0.0
 32
0.0
 13
1.0
 23
0.0
 33
0.0
 40
0.0
 40
0.0
 40
0.0
 40
0.0
 40
0.2501171894885679
 40
0.5000589672841157
 40
0.750001486189985
 40
1.0
 40
1.0
 40
1.0
 40
1.0
 10
925.6613468206325
 20
555.3303521591862
 30
0.0
 10
925.8065612255959
 20
555.4678913745292
 30
0.0
 10
926.0968881940432
 20
555.7428733464847
 30
0.0
 10
926.5181177535504
 20
555.9803364247185
 30
0.0
 10
926.8628485461804
 20
556.0687866321304
 30
0.0
 10
926.95599117526
 20
555.9647667676082
 30
0.0
 10
927.0025677059277
 20
555.9127510100777
 30
0.0
  0
SPLINE
  5
1CA
330
1F
100
AcDbEntity
  8
0
  6
Continuous
 62
     7
370
    15
100
AcDbSpline
210
0.0
220
0.0
230
1.0
 70
     8
 71
     3
 72
    11
 73
     7
 74
     0
 42
0.00000001
 43
0.00000001
 12
1.0
 22
0.0
 32
0.0
 13
1.0
 23
0.0
 33
0.0
 40
0.0
 40
0.0
 40
0.0
 40
0.0
 40
0.2502460433366592
 40
0.5000742790981275
 40
0.7498688737994617
 40
1.0
 40
1.0
 40
1.0
 40
1.0
 10
927.0025677059277
 20
555.9127510100777
 30
0.0
 10
927.0197559960134
 20
555.8462438078371
 30
0.0
 10
927.0541038788367
 20
555.7133404429253
 30
0.0
 10
926.9342131356717
 20
555.3805801767148
 30
0.0
 10
926.6992226405348
 20
554.9862732841606
 30
0.0
 10
926.4755737184573
 20
554.7149184098639
 30
0.0
 10
926.3636739813288
 20
554.5791496396846
 30
0.0
  0
LINE
  5
1CB
330
1F
100
AcDbEntity
  8
0
  6
Continuous
 62
     7
370
    15
100
AcDbLine
 10
926.3636739813
 20
554.5791496397
 30
0.0
 11
926.247608862
 21
554.8504471954
 31
0.0
  0
SPLINE
  5
1CC
330
1F
100
AcDbEntity
  8
0
  6
Continuous
 62
     7
370
    15
100
AcDbSpline
210
0.0
220
0.0
230
1.0
 70
     8
 71
     3
 72
    11
 73
     7
 74
     0
 42
0.00000001
 43
0.00000001
 12
1.0
 22
0.0
 32
0.0
 13
1.0
 23
0.0
 33
0.0
 40
0.0
 40
0.0
 40
0.0
 40
0.0
 40
0.250304284702071
 40
0.5002979451325364
 40
0.7501213484862332
 40
1.0
 40
1.0
 40
1.0
 40
1.0
 10
926.2476088620472
 20
554.850447195447
 30
0.0
 10
926.2844947289663
 20
554.9031761072188
 30
0.0
 10
926.3582206879364
 20
555.0085684948875
 30
0.0
 10
926.4319870528509
 20
555.1548864848693
 30
0.0
 10
926.4692996488025
 20
555.2798873499929
 30
0.0
 10
926.4559379299657
 20
555.3315826704184
 30
0.0
 10
926.449256331897
 20
555.3574331884055
 30
0.0
  0
SPLINE
  5
1CD
330
1F
100
AcDbEntity
  8
0
  6
Continuous
 62
     7
370
    15
100
AcDbSpline
210
0.0
220
0.0
230
1.0
 70
     8
 71
     3
 72
    13
 73
     9
 74
     0
 42
0.00000001
 43
0.00000001
 12
1.0
 22
0.0
 32
0.0
 13
1.0
 23
0.0
 33
0.0
 40
0.0
 40
0.0
 40
0.0
 40
0.0
 40
0.2491886988765756
 40
0.373572423120074
 40
0.4997234333243884
 40
0.6255280748750571
 40
0.7502519078808056
 40
1.0
 40
1.0
 40
1.0
 40
1.0
 10
926.4492551517161
 20
555.357436229212
 30
0.0
 10
926.4278648352522
 20
555.3807700930522
 30
0.0
 10
926.3957974405881
 20
555.4157511660094
 30
0.0
 10
926.3026000638743
 20
555.4004114545124
 30
0.0
 10
926.2208602864092
 20
555.3692067673809
 30
0.0
 10
926.1290018199815
 20
555.317952421563
 30
0.0
 10
925.9980848037194
 20
555.2252739520912
 30
0.0
 10
925.8991953851483
 20
555.1300776159259
 30
0.0
 10
925.8332426608937
 20
555.0665879342199
 30
0.0
  0
SPLINE
  5
1CE
330
1F
100
AcDbEntity
  8
0
  6
Continuous
 62
     7
370
    15
100
AcDbSpline
210
0.0
220
0.0
230
1.0
 70
     8
 71
     3
 72
    14
 73
    10
 74
     0
 42
0.00000001
 43
0.00000001
 12
1.0
 22
0.0
 32
0.0
 13
1.0
 23
0.0
 33
0.0
 40
0.0
 40
0.0
 40
0.0
 40
0.0
 40
0.2499182797636691
 40
0.4990992268411386
 40
0.6265652673727221
 40
0.749501973715794
 40
0.8745989327642172
 40
0.9372969125677504
 40
1.0
 40
1.0
 40
1.0
 40
1.0
 10
925.8332426608937
 20
555.0665879342199
 30
0.0
 10
925.7727039790635
 20
555.0016849486485
 30
0.0
 10
925.6518052223821
 20
554.8720704604686
 30
0.0
 10
925.5331182035318
 20
554.6933422305974
 30
0.0
 10
925.4681921815782
 20
554.5640325921516
 30
0.0
 10
925.4366926655586
 20
554.4760834606668
 30
0.0
 10
925.4289557349211
 20
554.4168235802891
 30
0.0
 10
925.4325498584054
 20
554.3780218344303
 30
0.0
 10
925.4385415202994
 20
554.3627630809304
 30
0.0
 10
925.4415374732675
 20
554.3551333934334
 30
0.0
  0
SPLINE
  5
1CF
330
1F
100
AcDbEntity
  8
0
  6
Continuous
 62
     7
370
    15
100
AcDbSpline
210
0.0
220
0.0
230
1.0
 70
     8
 71
     3
 72
    10
 73
     6
 74
     0
 42
0.00000001
 43
0.00000001
 12
1.0
 22
0.0
 32
0.0
 13
1.0
 23
0.0
 33
0.0
 40
0.0
 40
0.0
 40
0.0
 40
0.0
 40
0.2500138183759694
 40
0.5002755069556843
 40
1.0
 40
1.0
 40
1.0
 40
1.0
 10
925.4415388016469
 20
554.3551300521231
 30
0.0
 10
925.4525577712966
 20
554.3411387639709
 30
0.0
 10
925.4746066350898
 20
554.3131423163393
 30
0.0
 10
925.5645144549793
 20
554.3127573860257
 30
0.0
 10
925.6565309641995
 20
554.3533383363434
 30
0.0
 10
925.7178426317321
 20
554.3803778943002
 30
0.0
  0
LINE
  5
1D0
330
1F
100
AcDbEntity
  8
0
  6
Continuous
 62
     7
370
    15
100
AcDbLine
 10
925.7178429997
 20
554.3803780708
 30
0.0
 11
925.7033017444
 21
554.0561450221
 31
0.0
  0
LINE
  5
1D1
330
1F
100
AcDbEntity
  8
0
  6
Continuous
 62
     7
370
    15
100
AcDbLine
 10
925.7033017444
 20
554.0561450221
 30
0.0
 11
923.9014453654
 21
552.4607431145
 31
0.0
  0
LINE
  5
1D2
330
1F
100
AcDbEntity
  8
0
  6
Continuous
 62
     7
370
    15
100
AcDbLine
 10
924.1071660678
 20
553.7130283942
 30
0.0
 11
924.1002083603
 21
553.7191613942
 31
0.0
  0
LINE
  5
1D3
330
1F
100
AcDbEntity
  8
0
  6
Continuous
 62
     7
370
    15
100
AcDbLine
 10
923.5610573679
 20
553.1561973643
 30
0.0
 11
923.5540988449
 21
553.1623321129
 31
0.0
  0
LINE
  5
1D4
330
1F
100
AcDbEntity
  8
0
  6
Continuous
 62
     7
370
    15
100
AcDbLine
 10
923.9014453654
 20
552.4607431145
 30
0.0
 11
923.8943887865
 21
552.4670881446
 31
0.0
  0
LINE
  5
1D5
330
1F
100
AcDbEntity
  8
0
  6
Continuous
 62
     7
370
    15
100
AcDbLine
 10
925.6613468206
 20
555.3303521592
 30
0.0
 11
925.6543947206
 21
555.3364731337
 31
0.0
  0
LINE
  5
1D6
330
1F
100
AcDbEntity
  8
0
  6
Continuous
 62
     7
370
    15
100
AcDbLine
 10
924.8755949277
 20
553.8020238006
 30
0.0
 11
924.8685714831
 21
553.8082977741
 31
0.0
  0
ARC
  5
1D7
330
1F
100
AcDbEntity
  8
0
  6
Continuous
 62
     7
370
    15
100
AcDbCircle
 10
928.0528594506
 20
604.960122069
 30
0.0
 40
1.190608807901048
100
AcDbArc
 50
284.0237736414
 51
334.4085911738
  0
ARC
  5
1D8
330
1F
100
AcDbEntity
  8
0
  6
Continuous
 62
     7
370
    15
100
AcDbCircle
 10
928.3898475838
 20
604.0513983794
 30
0.0
 40
0.8357538238387642
100
AcDbArc
 50
28.1613837537
 51
97.9644501976
  0
ARC
  5
1D9
330
1F
100
AcDbEntity
  8
0
  6
Continuous
 62
     7
370
    15
100
AcDbCircle
 10
941.9887600922
 20
575.0744866997
 30
0.0
 40
1.190608807914612
100
AcDbArc
 50
75.5914088268
 51
125.9762263586
  0
ARC
  5
1DA
330
1F
100
AcDbEntity
  8
0
  6
Continuous
 62
     7
370
    15
100
AcDbCircle
 10
941.509249156
 20
575.9167509149
 30
0.0
 40
0.8357538238417708
100
AcDbArc
 50
312.0355498025
 51
21.8386162464
  0
LINE
  5
1DB
330
1F
100
AcDbEntity
  8
0
  6
Continuous
 62
     7
370
    15
100
AcDbLine
 10
929.1266663258
 20
604.4458379761
 30
0.0
 11
942.2850253752
 21
576.2276459322
 31
0.0
  0
LINE
  5
1DC
330
1F
100
AcDbEntity
  8
0
  6
Continuous
 62
     7
370
    15
100
AcDbLine
 10
926.4492551517
 20
555.3574362292
 30
0.0
 11
926.4422274621
 21
555.3637193063
 31
0.0
  0
LINE
  5
1DD
330
1F
100
AcDbEntity
  8
0
  6
Continuous
 62
     7
370
    15
100
AcDbLine
 10
927.7633066748
 20
607.369572183
 30
0.0
 11
929.1266663258
 21
604.4458379761
 31
0.0
  0
SPLINE
  5
1DE
330
1F
100
AcDbEntity
  8
0
  6
Continuous
 62
     7
370
    15
100
AcDbSpline
210
0.0
220
0.0
230
1.0
 70
     8
 71
     3
 72
    11
 73
     7
 74
     0
 42
0.00000001
 43
0.00000001
 12
1.0
 22
0.0
 32
0.0
 13
1.0
 23
0.0
 33
0.0
 40
0.0
 40
0.0
 40
0.0
 40
0.0
 40
0.293311876092707
 40
0.5865991201419841
 40
0.8805021461502911
 40
1.0
 40
1.0
 40
1.0
 40
1.0
 10
926.8423521158189
 20
607.9493695741545
 30
0.0
 10
926.955052984504
 20
607.9396991497923
 30
0.0
 10
927.1804452573662
 20
607.9203591131808
 30
0.0
 10
927.4812017370726
 20
607.7511547403593
 30
0.0
 10
927.6696497966689
 20
607.5505542632637
 30
0.0
 10
927.7423049436184
 20
607.4101558226639
 30
0.0
 10
927.7633066747577
 20
607.3695721830227
 30
0.0
  0
LINE
  5
1DF
330
1F
100
AcDbEntity
  8
0
  6
Continuous
 62
     7
370
    15
100
AcDbLine
 10
942.2850253752
 20
576.2276459322
 30
0.0
 11
943.6736430679
 21
573.2497456803
 31
0.0
  0
LINE
  5
1E0
330
1F
100
AcDbEntity
  8
0
  6
Continuous
 62
     7
370
    15
100
AcDbLine
 10
925.7178429997
 20
554.3803780708
 30
0.0
 11
925.7107926011
 21
554.3867098475
 31
0.0
  0
LINE
  5
1E1
330
1F
100
AcDbEntity
  8
0
  6
Continuous
 62
     7
370
    15
100
AcDbLine
 10
926.247608862
 20
554.8504471954
 30
0.0
 11
926.240551542
 21
554.8567938151
 31
0.0
  0
LINE
  5
1E2
330
1F
100
AcDbEntity
  8
0
  6
Continuous
 62
     7
370
    15
100
AcDbLine
 10
926.3636739813
 20
554.5791496397
 30
0.0
 11
926.3565784776
 21
554.5855781445
 31
0.0
  0
LINE
  5
1E3
330
1F
100
AcDbEntity
  8
0
  6
Continuous
 62
     7
370
    15
100
AcDbLine
 10
895.0927933588
 20
601.9609382698
 30
0.0
 11
892.2314703183
 21
600.7507857374
 31
0.0
  0
LINE
  5
1E4
330
1F
100
AcDbEntity
  8
0
  6
Continuous
 62
     7
370
    15
100
AcDbLine
 10
918.5049299106
 20
551.7534494107
 30
0.0
 11
895.0927933588
 21
601.9609382698
 31
0.0
  0
LINE
  5
1E5
330
1F
100
AcDbEntity
  8
0
  6
Continuous
 62
     7
370
    15
100
AcDbLine
 10
915.7386762901
 20
550.3394198492
 30
0.0
 11
918.5049299106
 21
551.7534494107
 31
0.0
  0
ARC
  5
1E6
330
1F
100
AcDbEntity
  8
0
  6
Continuous
 62
     7
370
    15
100
AcDbCircle
 10
917.6676572612
 20
553.4851975289
 30
0.0
 40
1.923532436518436
100
AcDbArc
 50
295.8030276957
 51
22.9376068066
  0
ARC
  5
1E7
330
1F
100
AcDbEntity
  8
0
  6
Continuous
 62
     7
370
    15
100
AcDbCircle
 10
895.8812008967
 20
600.2064039758
 30
0.0
 40
1.923532436518702
100
AcDbArc
 50
27.0623931934
 51
114.1969723043
  0
SPLINE
  5
1E8
330
1F
100
AcDbEntity
  8
0
  6
Continuous
 62
     7
370
    15
100
AcDbSpline
210
0.0
220
0.0
230
1.0
 70
     8
 71
     3
 72
    11
 73
     7
 74
     0
 42
0.00000001
 43
0.00000001
 12
1.0
 22
0.0
 32
0.0
 13
1.0
 23
0.0
 33
0.0
 40
0.0
 40
0.0
 40
0.0
 40
0.0
 40
0.2835227646035643
 40
0.5667788824161025
 40
0.84993022272677
 40
1.0
 40
1.0
 40
1.0
 40
1.0
 10
918.5049299105636
 20
551.7534494106811
 30
0.0
 10
918.554914099162
 20
551.6623283634449
 30
0.0
 10
918.6548354673524
 20
551.4801719662702
 30
0.0
 10
918.8865618485842
 20
550.9904280939131
 30
0.0
 10
919.107326137995
 20
550.4970677574859
 30
0.0
 10
919.2418983806164
 20
550.1821389328358
 30
0.0
 10
919.2885148211767
 20
550.0730461470645
 30
0.0
  0
LWPOLYLINE
  5
1E9
330
1F
100
AcDbEntity
  8
0
  6
Continuous
 62
     7
370
    15
100
AcDbPolyline
 90
        3
 70
   128
 43
0.0
 10
919.2885148212
 20
550.0730461471
 10
918.7949300267
 20
549.821220211
 10
916.5211759622
 20
548.661343887
  0
LWPOLYLINE
  5
1EA
330
1F
100
AcDbEntity
  8
0
  6
Continuous
 62
     7
370
    15
100
AcDbPolyline
 90
        3
 70
   128
 43
0.0
 10
891.4489706463
 20
602.4288616995
 10
893.799028399
 20
603.4251042358
 10
894.3092084482
 20
603.6413415334
  0
SPLINE
  5
1EB
330
1F
100
AcDbEntity
  8
0
  6
Continuous
 62
     7
370
    15
100
AcDbSpline
210
0.0
220
0.0
230
1.0
 70
     8
 71
     3
 72
    11
 73
     7
 74
     0
 42
0.00000001
 43
0.00000001
 12
1.0
 22
0.0
 32
0.0
 13
1.0
 23
0.0
 33
0.0
 40
0.0
 40
0.0
 40
0.0
 40
0.0
 40
0.2835227523786522
 40
0.566778888804724
 40
0.8499302218874306
 40
1.0
 40
1.0
 40
1.0
 40
1.0
 10
894.3092084482333
 20
603.6413415333689
 30
0.0
 10
894.410434993245
 20
603.4403292849065
 30
0.0
 10
894.6127928929826
 20
603.0384938136303
 30
0.0
 10
894.8674740896668
 20
602.4995296294009
 30
0.0
 10
895.0246937337154
 20
602.1424441927782
 30
0.0
 10
895.0752726057991
 20
602.0076363308683
 30
0.0
 10
895.0927933588617
 20
601.9609382697585
 30
0.0
  0
LINE
  5
1EC
330
1F
100
AcDbEntity
  8
0
  6
Continuous
 62
     7
370
    15
100
AcDbLine
 10
921.0062654259
 20
550.8740464088
 30
0.0
 11
919.2885148212
 21
550.0730461471
 31
0.0
  0
LINE
  5
1ED
330
1F
100
AcDbEntity
  8
0
  6
Continuous
 62
     7
370
    15
100
AcDbLine
 10
896.0269590529
 20
604.4423417951
 30
0.0
 11
894.3092084482
 21
603.6413415334
 31
0.0
  0
LINE
  5
1EE
330
1F
100
AcDbEntity
  8
0
  6
Continuous
 62
     7
370
    15
100
AcDbLine
 10
882.9027136314
 20
620.8801089978
 30
0.0
 11
883.318388353
 21
621.0480524868
 31
0.0
  0
SPLINE
  5
1EF
330
1F
100
AcDbEntity
  8
0
  6
Continuous
 62
     7
370
    15
100
AcDbSpline
210
0.0
220
0.0
230
1.0
 70
     8
 71
     3
 72
    14
 73
    10
 74
     0
 42
0.00000001
 43
0.00000001
 12
1.0
 22
0.0
 32
0.0
 13
1.0
 23
0.0
 33
0.0
 40
0.0
 40
0.0
 40
0.0
 40
0.0
 40
0.0000064140457977
 40
0.0730558909548036
 40
0.2154935957733521
 40
0.4037789030075337
 40
0.5887468703998119
 40
0.8882363243876842
 40
1.0
 40
1.0
 40
1.0
 40
1.0
 10
883.3183883529991
 20
621.0480524867567
 30
0.0
 10
883.3184068929689
 20
621.0480599772585
 30
0.0
 10
883.5295768856317
 20
621.133376687356
 30
0.0
 10
884.18059182126
 20
621.3195188101809
 30
0.0
 10
885.4585227236951
 20
621.3253841099433
 30
0.0
 10
887.0301346970801
 20
620.8513457146845
 30
0.0
 10
888.721805790134
 20
619.5445138348061
 30
0.0
 10
889.7146233024941
 20
617.9329284000353
 30
0.0
 10
890.2697507153412
 20
616.7788293652444
 30
0.0
 10
890.4206141997192
 20
616.4651871316296
 30
0.0
  0
LINE
  5
1F0
330
1F
100
AcDbEntity
  8
0
  6
Continuous
 62
     7
370
    15
100
AcDbLine
 10
890.4206141997
 20
616.4651871316
 30
0.0
 11
888.702863595
 21
615.6641868699
 31
0.0
  0
SPLINE
  5
1F1
330
1F
100
AcDbEntity
  8
0
  6
Continuous
 62
     7
370
    15
100
AcDbSpline
210
0.0
220
0.0
230
1.0
 70
     8
 71
     3
 72
    13
 73
     9
 74
     0
 42
0.00000001
 43
0.00000001
 12
1.0
 22
0.0
 32
0.0
 13
1.0
 23
0.0
 33
0.0
 40
0.0
 40
0.0
 40
0.0
 40
0.0
 40
0.2359779310481726
 40
0.4700664405346262
 40
0.628156754547111
 40
0.7867756990089757
 40
0.8916100492377196
 40
0.9999999999999999
 40
0.9999999999999999
 40
0.9999999999999999
 40
0.9999999999999999
 10
888.7028635950161
 20
615.664186869856
 30
0.0
 10
888.4732090033386
 20
616.1458249769594
 30
0.0
 10
888.0157386120073
 20
617.1052448245114
 30
0.0
 10
887.2008101881569
 20
618.2861778796062
 30
0.0
 10
886.2075082099655
 20
619.0757375138542
 30
0.0
 10
885.2765701209639
 20
619.3506787836595
 30
0.0
 10
884.4187663466803
 20
619.3671469112387
 30
0.0
 10
883.9732628988314
 20
619.1701304368877
 30
0.0
 10
883.746796700784
 20
619.0699795354425
 30
0.0
  0
SPLINE
  5
1F2
330
1F
100
AcDbEntity
  8
0
  6
Continuous
 62
     7
370
    15
100
AcDbSpline
210
0.0
220
0.0
230
1.0
 70
     8
 71
     3
 72
    15
 73
    11
 74
     0
 42
0.00000001
 43
0.00000001
 12
1.0
 22
0.0
 32
0.0
 13
1.0
 23
0.0
 33
0.0
 40
0.0
 40
0.0
 40
0.0
 40
0.0
 40
0.0125258353877867
 40
0.2274813526119545
 40
0.4424404199769163
 40
0.4999991763207135
 40
0.7148755009569838
 40
0.9297495265588456
 40
0.9874741646146632
 40
0.9999999999999999
 40
0.9999999999999999
 40
0.9999999999999999
 40
0.9999999999999999
 10
883.746796700784
 20
619.0699795354426
 30
0.0
 10
883.7415940739181
 20
619.0819369733715
 30
0.0
 10
883.6471093102309
 20
619.2990956753366
 30
0.0
 10
883.4606184574387
 20
619.7221097431278
 30
0.0
 10
883.2758865480453
 20
620.1298275549436
 30
0.0
 10
883.1182900128903
 20
620.4697889616974
 30
0.0
 10
882.9884676607655
 20
620.7406507571806
 30
0.0
 10
882.9200147645921
 20
620.8654130187919
 30
0.0
 10
882.905021653483
 20
620.8804626677585
 30
0.0
 10
882.9030670544797
 20
620.8801642003539
 30
0.0
 10
882.9027185445815
 20
620.880110982868
 30
0.0
  0
LINE
  5
1F3
330
1F
100
AcDbEntity
  8
0
  6
Continuous
 62
     7
370
    15
100
AcDbLine
 10
883.7467967008
 20
619.0699795354
 30
0.0
 11
883.6993967407
 21
619.047876571
 31
0.0
  0
LINE
  5
1F4
330
1F
100
AcDbEntity
  8
0
  6
Continuous
 62
     7
370
    15
100
AcDbLine
 10
894.3092084482
 20
603.6413415334
 30
0.0
 11
888.702863595
 21
615.6641868699
 31
0.0
  0
SPLINE
  5
1F5
330
1F
100
AcDbEntity
  8
0
  6
Continuous
 62
     7
370
    15
100
AcDbSpline
210
0.0
220
0.0
230
1.0
 70
     8
 71
     3
 72
     9
 73
     5
 74
     0
 42
0.00000001
 43
0.00000001
 12
1.0
 22
0.0
 32
0.0
 13
1.0
 23
0.0
 33
0.0
 40
0.0
 40
0.0
 40
0.0
 40
0.0
 40
0.0000220488581531
 40
0.9999999999999999
 40
0.9999999999999999
 40
0.9999999999999999
 40
0.9999999999999999
 10
932.951884205208
 20
525.2565842668014
 30
0.0
 10
932.9518926575691
 20
525.256566140643
 30
0.0
 10
933.3352395454361
 20
524.4344755727464
 30
0.0
 10
933.6261776051551
 20
523.5733813296757
 30
0.0
 10
933.9171092500219
 20
522.7123060727499
 30
0.0
  0
SPLINE
  5
1F6
330
1F
100
AcDbEntity
  8
0
  6
Continuous
 62
     7
370
    15
100
AcDbSpline
210
0.0
220
0.0
230
1.0
 70
     8
 71
     3
 72
    11
 73
     7
 74
     0
 42
0.00000001
 43
0.00000001
 12
1.0
 22
0.0
 32
0.0
 13
1.0
 23
0.0
 33
0.0
 40
0.0
 40
0.0
 40
0.0
 40
0.0
 40
0.2499768814500258
 40
0.4998058427199996
 40
0.7495361389842358
 40
1.0
 40
1.0
 40
1.0
 40
1.0
 10
933.9171092500219
 20
522.7123060727499
 30
0.0
 10
933.891759681056
 20
522.6982751513365
 30
0.0
 10
933.8410755433626
 20
522.6702216111033
 30
0.0
 10
933.4262542178775
 20
522.5429573353064
 30
0.0
 10
932.8262229708613
 20
522.3725589459536
 30
0.0
 10
932.3393480414135
 20
522.2429695665008
 30
0.0
 10
932.0955535610376
 20
522.1780798514732
 30
0.0
  0
LINE
  5
1F7
330
1F
100
AcDbEntity
  8
0
  6
Continuous
 62
     7
370
    15
100
AcDbLine
 10
932.095553561
 20
522.1780798515
 30
0.0
 11
931.2341336005
 21
524.455584005
 31
0.0
  0
LINE
  5
1F8
330
1F
100
AcDbEntity
  8
0
  6
Continuous
 62
     7
370
    15
100
AcDbLine
 10
932.9518842052
 20
525.2565842668
 30
0.0
 11
931.2341336005
 21
524.455584005
 31
0.0
  0
LINE
  5
1F9
330
1F
100
AcDbEntity
  8
0
  6
Continuous
 62
     7
370
    15
100
AcDbLine
 10
931.2341336005
 20
524.455584005
 30
0.0
 11
919.2885148212
 21
550.0730461471
 31
0.0
  0
LINE
  5
1FA
330
1F
100
AcDbEntity
  8
0
  6
Continuous
 62
     7
370
    15
100
AcDbLine
 10
932.095553561
 20
522.1780798515
 30
0.0
 11
929.4465349121
 21
520.9428221689
 31
0.0
  0
LINE
  5
1FB
330
1F
100
AcDbEntity
  8
0
  6
Continuous
 62
     7
370
    15
100
AcDbLine
 10
882.9027136314
 20
620.8801089978
 30
0.0
 11
882.8541602172
 21
620.8604921451
 31
0.0
  0
SPLINE
  5
1FC
330
1F
100
AcDbEntity
  8
0
  6
Continuous
 62
     7
370
    15
100
AcDbSpline
210
0.0
220
0.0
230
1.0
 70
     8
 71
     3
 72
    11
 73
     7
 74
     0
 42
0.00000001
 43
0.00000001
 12
1.0
 22
0.0
 32
0.0
 13
1.0
 23
0.0
 33
0.0
 40
0.0
 40
0.0
 40
0.0
 40
0.0
 40
0.2440033155445693
 40
0.4919416665511683
 40
0.7439093003410298
 40
1.0
 40
1.0
 40
1.0
 40
1.0
 10
932.7304127173778
 20
520.8689260463715
 30
0.0
 10
932.6934702831377
 20
520.9519447943775
 30
0.0
 10
932.61898964493
 20
521.1193211316945
 30
0.0
 10
932.4660936077191
 20
521.440114662477
 30
0.0
 10
932.2902485764948
 20
521.7978501817023
 30
0.0
 10
932.1608020669812
 20
522.0506527686085
 30
0.0
 10
932.0955535610376
 20
522.1780798514732
 30
0.0
  0
LINE
  5
1FD
330
1F
100
AcDbEntity
  8
0
  6
Continuous
 62
     7
370
    15
100
AcDbLine
 10
932.7304127174
 20
520.8689260464
 30
0.0
 11
930.1127731461
 21
519.5140696654
 31
0.0
  0
SPLINE
  5
1FE
330
1F
100
AcDbEntity
  8
0
  6
Continuous
 62
     7
370
    15
100
AcDbSpline
210
0.0
220
0.0
230
1.0
 70
     8
 71
     3
 72
    11
 73
     7
 74
     0
 42
0.00000001
 43
0.00000001
 12
1.0
 22
0.0
 32
0.0
 13
1.0
 23
0.0
 33
0.0
 40
0.0
 40
0.0
 40
0.0
 40
0.0
 40
0.2501480011265513
 40
0.5002880311524661
 40
0.7504202668475278
 40
1.0
 40
1.0
 40
1.0
 40
1.0
 10
933.9171092500218
 20
522.7123060727499
 30
0.0
 10
933.9387624931398
 20
522.5384759593072
 30
0.0
 10
933.982068289384
 20
522.190821271612
 30
0.0
 10
933.7499295769171
 20
521.6580403132784
 30
0.0
 10
933.3329495021774
 20
521.1829212544121
 30
0.0
 10
932.931110215513
 20
520.9735139392104
 30
0.0
 10
932.7304127173778
 20
520.8689260463715
 30
0.0
  0
LINE
  5
1FF
330
1F
100
AcDbEntity
  8
0
  6
Continuous
 62
     7
370
    15
100
AcDbLine
 10
890.4206141997
 20
616.4651871316
 30
0.0
 11
895.1871498665
 21
606.2433184074
 31
0.0
  0
LINE
  5
200
330
1F
100
AcDbEntity
  8
0
  6
Continuous
 62
     7
370
    15
100
AcDbLine
 10
921.8460746123
 20
549.0730697966
 30
0.0
 11
932.9518842052
 21
525.2565842668
 31
0.0
  0
SPLINE
  5
201
330
1F
100
AcDbEntity
  8
0
  6
Continuous
 62
     7
370
    15
100
AcDbSpline
210
0.0
220
0.0
230
1.0
 70
     8
 71
     3
 72
    14
 73
    10
 74
     0
 42
0.00000001
 43
0.00000001
 12
1.0
 22
0.0
 32
0.0
 13
1.0
 23
0.0
 33
0.0
 40
0.0
 40
0.0
 40
0.0
 40
0.0
 40
0.002404574946557
 40
0.0051901321609401
 40
0.0347267574258778
 40
0.2932094380103037
 40
0.5746449636639227
 40
0.7844996086191881
 40
1.0
 40
1.0
 40
1.0
 40
1.0
 10
931.8973399685983
 20
516.870154556008
 30
0.0
 10
931.8992098984598
 20
516.8711529620057
 30
0.0
 10
931.9032460309692
 20
516.8733079620345
 30
0.0
 10
931.9302094124778
 20
516.8879754461642
 30
0.0
 10
932.1542077277013
 20
517.0211868007027
 30
0.0
 10
932.5647578770397
 20
517.4654282967083
 30
0.0
 10
932.9738864353077
 20
518.4555531684985
 30
0.0
 10
933.0421845849761
 20
519.6131510741566
 30
0.0
 10
932.8352522125011
 20
520.4466467204983
 30
0.0
 10
932.7304127173779
 20
520.8689260463715
 30
0.0
  0
SPLINE
  5
202
330
1F
100
AcDbEntity
  8
0
  6
Continuous
 62
     7
370
    15
100
AcDbSpline
210
0.0
220
0.0
230
1.0
 70
     8
 71
     3
 72
    20
 73
    16
 74
     0
 42
0.00000001
 43
0.00000001
 12
1.0
 22
0.0
 32
0.0
 13
1.0
 23
0.0
 33
0.0
 40
0.0
 40
0.0
 40
0.0
 40
0.0
 40
0.2070577373168122
 40
0.4203770502760588
 40
0.7011163025568189
 40
0.8834527988431002
 40
0.9282286404934951
 40
0.9524788585968953
 40
0.9675018207221376
 40
0.97738271463823
 40
0.984093855368542
 40
0.9887393639099429
 40
0.9919933949590708
 40
0.9977340800222599
 40
1.0
 40
1.0
 40
1.0
 40
1.0
 10
933.9171092500218
 20
522.7123060727499
 30
0.0
 10
934.0219745836353
 20
522.2231916004898
 30
0.0
 10
934.2348764543493
 20
521.2301714807854
 30
0.0
 10
934.0364451457247
 20
519.521413993945
 30
0.0
 10
933.4023582517257
 20
518.2246001723194
 30
0.0
 10
932.7316047361198
 20
517.4569130454308
 30
0.0
 10
932.3212529856185
 20
517.1353869287226
 30
0.0
 10
932.175769986187
 20
517.03529144955
 30
0.0
 10
932.0878738457714
 20
516.9794198666016
 30
0.0
 10
932.030199063614
 20
516.9446481334313
 30
0.0
 10
931.9909477649966
 20
516.9218323993806
 30
0.0
 10
931.9637077360644
 20
516.906397903381
 30
0.0
 10
931.9381223867967
 20
516.8921646087231
 30
0.0
 10
931.9168649848222
 20
516.8805708415803
 30
0.0
 10
931.9016468088589
 20
516.8724521867782
 30
0.0
 10
931.8973399685983
 20
516.870154556008
 30
0.0
  0
SPLINE
  5
203
330
1F
100
AcDbEntity
  8
0
  6
Continuous
 62
     7
370
    15
100
AcDbSpline
210
0.0
220
0.0
230
1.0
 70
     8
 71
     3
 72
    10
 73
     6
 74
     0
 42
0.00000001
 43
0.00000001
 12
1.0
 22
0.0
 32
0.0
 13
1.0
 23
0.0
 33
0.0
 40
0.0
 40
0.0
 40
0.0
 40
0.0
 40
0.4527378322259283
 40
0.905595461746424
 40
1.0
 40
1.0
 40
1.0
 40
1.0
 10
934.0391909922066
 20
519.9153841729103
 30
0.0
 10
934.0468140390547
 20
519.9678835969495
 30
0.0
 10
934.0620621498574
 20
520.0728963367076
 30
0.0
 10
934.1854231671957
 20
520.5555651956867
 30
0.0
 10
934.143402634987
 20
521.0320109761466
 30
0.0
 10
934.1361539538723
 20
521.1141994528142
 30
0.0
  0
SPLINE
  5
204
330
1F
100
AcDbEntity
  8
0
  6
Continuous
 62
     7
370
    15
100
AcDbSpline
210
0.0
220
0.0
230
1.0
 70
     8
 71
     3
 72
    12
 73
     8
 74
     0
 42
0.00000001
 43
0.00000001
 12
1.0
 22
0.0
 32
0.0
 13
1.0
 23
0.0
 33
0.0
 40
0.0
 40
0.0
 40
0.0
 40
0.0
 40
0.4616906276037534
 40
0.7307729957148036
 40
0.9175829515522967
 40
0.971935952720359
 40
1.0
 40
1.0
 40
1.0
 40
1.0
 10
933.8960585056293
 20
522.7876918715501
 30
0.0
 10
933.8660447127378
 20
522.8962517115708
 30
0.0
 10
933.8185382917001
 20
523.0680823591148
 30
0.0
 10
933.7469149111204
 20
523.2921813531627
 30
0.0
 10
933.7054236822606
 20
523.4165501030735
 30
0.0
 10
933.6829364624058
 20
523.4822217060756
 30
0.0
 10
933.6759922666562
 20
523.5023096104175
 30
0.0
 10
933.673627680184
 20
523.5091497958866
 30
0.0
  0
LINE
  5
205
330
1F
100
AcDbEntity
  8
0
  6
Continuous
 62
     7
370
    15
100
AcDbLine
 10
889.0507743596
 20
618.7263314796
 30
0.0
 11
888.6051616361
 21
619.4612204975
 31
0.0
  0
LINE
  5
206
330
1F
100
AcDbEntity
  8
0
  6
Continuous
 62
     7
370
    15
100
AcDbLine
 10
932.9980659523
 20
525.1570388062
 30
0.0
 11
932.9560319949
 21
525.2476852948
 31
0.0
  0
SPLINE
  5
207
330
1F
100
AcDbEntity
  8
0
  6
Continuous
 62
     7
370
    15
100
AcDbSpline
210
0.0
220
0.0
230
1.0
 70
     8
 71
     3
 72
    13
 73
     9
 74
     0
 42
0.00000001
 43
0.00000001
 12
1.0
 22
0.0
 32
0.0
 13
1.0
 23
0.0
 33
0.0
 40
0.0
 40
0.0
 40
0.0
 40
0.0
 40
0.1254648118065613
 40
0.250243578881639
 40
0.3760698054095805
 40
0.5019139201694219
 40
0.7508310514861731
 40
1.0
 40
1.0
 40
1.0
 40
1.0
 10
888.6051616357533
 20
619.4612204979114
 30
0.0
 10
888.5174846634632
 20
619.5584927762765
 30
0.0
 10
888.3426101387621
 20
619.7525054457537
 30
0.0
 10
888.0689281065816
 20
620.0119055830029
 30
0.0
 10
887.8019274795557
 20
620.2353777513969
 30
0.0
 10
887.4770684638462
 20
620.4738515054294
 30
0.0
 10
887.1443821241041
 20
620.6714123408635
 30
0.0
 10
887.0914674341695
 20
620.6983765410776
 30
0.0
 10
887.064996713172
 20
620.711865457325
 30
0.0
  0
SPLINE
  5
208
330
1F
100
AcDbEntity
  8
0
  6
Continuous
 62
     7
370
    15
100
AcDbSpline
210
0.0
220
0.0
230
1.0
 70
     8
 71
     3
 72
     9
 73
     5
 74
     0
 42
0.00000001
 43
0.00000001
 12
1.0
 22
0.0
 32
0.0
 13
1.0
 23
0.0
 33
0.0
 40
0.0
 40
0.0
 40
0.0
 40
0.0
 40
0.5000138394957064
 40
1.0
 40
1.0
 40
1.0
 40
1.0
 10
933.4658727923812
 20
524.0694035251391
 30
0.0
 10
933.3979033799433
 20
524.2381205204388
 30
0.0
 10
933.2619683176131
 20
524.5755451714642
 30
0.0
 10
933.0860317841502
 20
524.9632111713448
 30
0.0
 10
932.9980659522918
 20
525.1570388061832
 30
0.0
  0
SPLINE
  5
209
330
1F
100
AcDbEntity
  8
0
  6
Continuous
 62
     7
370
    15
100
AcDbSpline
210
0.0
220
0.0
230
1.0
 70
     8
 71
     3
 72
     9
 73
     5
 74
     0
 42
0.00000001
 43
0.00000001
 12
1.0
 22
0.0
 32
0.0
 13
1.0
 23
0.0
 33
0.0
 40
0.0
 40
0.0
 40
0.0
 40
0.0
 40
0.7838918077678472
 40
0.9999999999999999
 40
0.9999999999999999
 40
0.9999999999999999
 40
0.9999999999999999
 10
934.1553264900377
 20
520.9065205566379
 30
0.0
 10
934.1615408760082
 20
520.9240983911101
 30
0.0
 10
934.1694684827378
 20
520.9465221928365
 30
0.0
 10
934.1462809677668
 20
521.2370357186463
 30
0.0
 10
934.141269955824
 20
521.2998180715282
 30
0.0
  0
SPLINE
  5
20A
330
1F
100
AcDbEntity
  8
0
  6
Continuous
 62
     7
370
    15
100
AcDbSpline
210
0.0
220
0.0
230
1.0
 70
     8
 71
     3
 72
     9
 73
     5
 74
     0
 42
0.00000001
 43
0.00000001
 12
1.0
 22
0.0
 32
0.0
 13
1.0
 23
0.0
 33
0.0
 40
0.0
 40
0.0
 40
0.0
 40
0.0
 40
0.116489287606432
 40
1.0
 40
1.0
 40
1.0
 40
1.0
 10
933.9281519024444
 20
522.6391485305261
 30
0.0
 10
933.919763185925
 20
522.6828107045104
 30
0.0
 10
933.8477504138343
 20
523.0576277789514
 30
0.0
 10
933.645002630697
 20
523.5948032457699
 30
0.0
 10
933.4658727923812
 20
524.0694035251391
 30
0.0
  0
LINE
  5
20B
330
1F
100
AcDbEntity
  8
0
  6
Continuous
 62
     7
370
    15
100
AcDbLine
 10
933.6736276804
 20
523.5091497953
 30
0.0
 11
933.5045235258
 21
523.9542460619
 31
0.0
  0
LINE
  5
20C
330
1F
100
AcDbEntity
  8
0
  6
Continuous
 62
     7
370
    15
100
AcDbLine
 10
915.8026195157
 20
548.3093318927
 30
0.0
 11
915.7813787004
 21
548.2994271379
 31
0.0
  0
LINE
  5
20D
330
1F
100
AcDbEntity
  8
0
  6
Continuous
 62
     7
370
    15
100
AcDbLine
 10
913.9614390292
 20
552.257756188
 30
0.0
 11
913.9401982138
 21
552.2478514332
 31
0.0
  0
LINE
  5
20E
330
1F
100
AcDbEntity
  8
0
  6
Continuous
 62
     7
370
    15
100
AcDbLine
 10
751.9097100307
 20
357.1344911578
 30
0.0
 11
725.4097100307
 21
357.1344911578
 31
0.0
  0
LINE
  5
20F
330
1F
100
AcDbEntity
  8
0
  6
Continuous
 62
     7
370
    15
100
AcDbLine
 10
778.4097100307
 20
357.1344911578
 30
0.0
 11
751.9097100307
 21
357.1344911578
 31
0.0
  0
LINE
  5
210
330
1F
100
AcDbEntity
  8
0
  6
Continuous
 62
     7
370
    15
100
AcDbLine
 10
751.9097100307
 20
363.1344911578
 30
0.0
 11
723.4097100307
 21
363.1344911578
 31
0.0
  0
LINE
  5
211
330
1F
100
AcDbEntity
  8
0
  6
Continuous
 62
     7
370
    15
100
AcDbLine
 10
780.4097100307
 20
363.1344911578
 30
0.0
 11
751.9097100307
 21
363.1344911578
 31
0.0
  0
LINE
  5
212
330
1F
100
AcDbEntity
  8
0
  6
Continuous
 62
     7
370
    15
100
AcDbLine
 10
201.4097100307
 20
363.1344911578
 30
0.0
 11
144.4097100307
 21
363.1344911578
 31
0.0
  0
LINE
  5
213
330
1F
100
AcDbEntity
  8
0
  6
Continuous
 62
     7
370
    15
100
AcDbLine
 10
199.4097100307
 20
357.1344911578
 30
0.0
 11
146.4097100307
 21
357.1344911578
 31
0.0
  0
LINE
  5
214
330
1F
100
AcDbEntity
  8
0
  6
Continuous
 62
     7
370
    15
100
AcDbLine
 10
796.9097100307
 20
455.1344911578
 30
0.0
 11
796.9097100307
 21
456.8344911579
 31
0.0
  0
LINE
  5
215
330
1F
100
AcDbEntity
  8
0
  6
Continuous
 62
     7
370
    15
100
AcDbLine
 10
706.9097100307
 20
455.1344911578
 30
0.0
 11
796.9097100307
 21
455.1344911578
 31
0.0
  0
LINE
  5
216
330
1F
100
AcDbEntity
  8
0
  6
Continuous
 62
     7
370
    15
100
AcDbLine
 10
706.9097100307
 20
455.1344911578
 30
0.0
 11
706.9097100307
 21
456.8344911579
 31
0.0
  0
LINE
  5
217
330
1F
100
AcDbEntity
  8
0
  6
Continuous
 62
     7
370
    15
100
AcDbLine
 10
751.9097100307
 20
392.1344911578
 30
0.0
 11
720.9500598104
 21
392.1344911578
 31
0.0
  0
LINE
  5
218
330
1F
100
AcDbEntity
  8
0
  6
Continuous
 62
     7
370
    15
100
AcDbLine
 10
782.869360251
 20
392.1344911578
 30
0.0
 11
751.9097100307
 21
392.1344911578
 31
0.0
  0
LINE
  5
219
330
1F
100
AcDbEntity
  8
0
  6
Continuous
 62
     7
370
    15
100
AcDbLine
 10
217.9097100307
 20
455.1344911578
 30
0.0
 11
217.9097100307
 21
456.8344911579
 31
0.0
  0
LINE
  5
21A
330
1F
100
AcDbEntity
  8
0
  6
Continuous
 62
     7
370
    15
100
AcDbLine
 10
127.9097100307
 20
455.1344911578
 30
0.0
 11
217.9097100307
 21
455.1344911578
 31
0.0
  0
LINE
  5
21B
330
1F
100
AcDbEntity
  8
0
  6
Continuous
 62
     7
370
    15
100
AcDbLine
 10
127.9097100307
 20
455.1344911578
 30
0.0
 11
127.9097100307
 21
456.8344911579
 31
0.0
  0
LINE
  5
21C
330
1F
100
AcDbEntity
  8
0
  6
Continuous
 62
     7
370
    15
100
AcDbLine
 10
203.869360251
 20
392.1344911578
 30
0.0
 11
141.9500598104
 21
392.1344911578
 31
0.0
  0
LINE
  5
21D
330
1F
100
AcDbEntity
  8
0
  6
Continuous
 62
     7
370
    15
100
AcDbLine
 10
600.4097100307
 20
456.0344911578
 30
0.0
 11
600.4097100307
 21
456.8344911578
 31
0.0
  0
LINE
  5
21E
330
1F
100
AcDbEntity
  8
0
  6
Continuous
 62
     7
370
    15
100
AcDbLine
 10
595.4097100307
 20
456.0344911578
 30
0.0
 11
595.4097100307
 21
456.8344911578
 31
0.0
  0
LINE
  5
21F
330
1F
100
AcDbEntity
  8
0
  6
Continuous
 62
     7
370
    15
100
AcDbLine
 10
600.4097100307
 20
456.0344911578
 30
0.0
 11
595.4097100307
 21
456.0344911578
 31
0.0
  0
LINE
  5
220
330
1F
100
AcDbEntity
  8
0
  6
Continuous
 62
     7
370
    15
100
AcDbLine
 10
706.9097100307
 20
456.0344911578
 30
0.0
 11
600.4097100307
 21
456.0344911578
 31
0.0
  0
LINE
  5
221
330
1F
100
AcDbEntity
  8
0
  6
Continuous
 62
     7
370
    15
100
AcDbLine
 10
795.4097100307
 20
454.7844911578
 30
0.0
 11
795.4097100307
 21
455.1344911578
 31
0.0
  0
LINE
  5
222
330
1F
100
AcDbEntity
  8
0
  6
Continuous
 62
     7
370
    15
100
AcDbLine
 10
595.4097100307
 20
456.0344911578
 30
0.0
 11
595.4097100307
 21
454.7844911578
 31
0.0
  0
LINE
  5
223
330
1F
100
AcDbEntity
  8
0
  6
Continuous
 62
     7
370
    15
100
AcDbLine
 10
795.4097100307
 20
454.7844911578
 30
0.0
 11
795.4097100307
 21
447.2844911578
 31
0.0
  0
LINE
  5
224
330
1F
100
AcDbEntity
  8
0
  6
Continuous
 62
     7
370
    15
100
AcDbLine
 10
595.4097100307
 20
447.2844911578
 30
0.0
 11
595.4097100307
 21
454.7844911578
 31
0.0
  0
LINE
  5
225
330
1F
100
AcDbEntity
  8
0
  6
Continuous
 62
     7
370
    15
100
AcDbLine
 10
795.4097100307
 20
447.2844911578
 30
0.0
 11
795.4097100307
 21
445.2344911578
 31
0.0
  0
LINE
  5
226
330
1F
100
AcDbEntity
  8
0
  6
Continuous
 62
     7
370
    15
100
AcDbLine
 10
595.4097100307
 20
445.2344911578
 30
0.0
 11
720.0097100307
 21
445.2344911578
 31
0.0
  0
LINE
  5
227
330
1F
100
AcDbEntity
  8
0
  6
Continuous
 62
     7
370
    15
100
AcDbLine
 10
783.8097100307
 20
445.2344911578
 30
0.0
 11
795.4097100307
 21
445.2344911578
 31
0.0
  0
LINE
  5
228
330
1F
100
AcDbEntity
  8
0
  6
Continuous
 62
     7
370
    15
100
AcDbLine
 10
595.4097100307
 20
445.2344911578
 30
0.0
 11
595.4097100307
 21
447.2844911578
 31
0.0
  0
LINE
  5
229
330
1F
100
AcDbEntity
  8
0
  6
Continuous
 62
     8
370
    15
100
AcDbLine
 10
843.6597100307
 20
452.6844911578
 30
0.0
 11
795.4097100307
 21
452.6844911578
 31
0.0
  0
LINE
  5
22A
330
1F
100
AcDbEntity
  8
0
  6
Continuous
 62
     8
370
    15
100
AcDbLine
 10
795.4097100307
 20
448.1844911578
 30
0.0
 11
843.6597100307
 21
448.1844911578
 31
0.0
  0
LINE
  5
22B
330
1F
100
AcDbEntity
  8
0
  6
Continuous
 62
     8
370
    15
100
AcDbLine
 10
815.5097100307
 20
455.3844911578
 30
0.0
 11
815.5097100307
 21
454.8344911578
 31
0.0
  0
LINE
  5
22C
330
1F
100
AcDbEntity
  8
0
  6
Continuous
 62
     8
370
    15
100
AcDbLine
 10
815.6097100307
 20
455.3844911578
 30
0.0
 11
815.6097100307
 21
454.8344911578
 31
0.0
  0
LINE
  5
22D
330
1F
100
AcDbEntity
  8
0
  6
Continuous
 62
     8
370
    15
100
AcDbLine
 10
943.5246466648
 20
572.1740734639
 30
0.0
 11
942.068862871
 21
575.2960118844
 31
0.0
  0
LINE
  5
22E
330
1F
100
AcDbEntity
  8
0
  6
Continuous
 62
     8
370
    15
100
AcDbLine
 10
751.9097100307
 20
359.1344911578
 30
0.0
 11
723.4097100307
 21
359.1344911578
 31
0.0
  0
LINE
  5
22F
330
1F
100
AcDbEntity
  8
0
  6
Continuous
 62
     8
370
    15
100
AcDbLine
 10
780.4097100307
 20
359.1344911578
 30
0.0
 11
751.9097100307
 21
359.1344911578
 31
0.0
  0
LINE
  5
230
330
1F
100
AcDbEntity
  8
0
  6
Continuous
 62
     8
370
    15
100
AcDbLine
 10
201.4097100307
 20
359.1344911578
 30
0.0
 11
144.4097100307
 21
359.1344911578
 31
0.0
  0
LINE
  5
231
330
1F
100
AcDbEntity
  8
0
  6
Continuous
 62
     8
370
    15
100
AcDbLine
 10
751.9097100307
 20
453.6344911578
 30
0.0
 11
720.0097100307
 21
453.6344911578
 31
0.0
  0
LINE
  5
232
330
1F
100
AcDbEntity
  8
0
  6
Continuous
 62
     8
370
    15
100
AcDbLine
 10
783.8097100307
 20
453.6344911578
 30
0.0
 11
751.9097100307
 21
453.6344911578
 31
0.0
  0
LINE
  5
233
330
1F
100
AcDbEntity
  8
0
  6
Continuous
 62
     8
370
    15
100
AcDbLine
 10
751.9097100307
 20
397.394593879
 30
0.0
 11
720.0736232577
 21
397.394593879
 31
0.0
  0
LINE
  5
234
330
1F
100
AcDbEntity
  8
0
  6
Continuous
 62
     8
370
    15
100
AcDbLine
 10
783.7457968037
 20
397.394593879
 30
0.0
 11
751.9097100307
 21
397.394593879
 31
0.0
  0
LINE
  5
235
330
1F
100
AcDbEntity
  8
0
  6
Continuous
 62
     8
370
    15
100
AcDbLine
 10
751.9097100307
 20
398.1670571035
 30
0.0
 11
720.0097100307
 21
398.1670571035
 31
0.0
  0
LINE
  5
236
330
1F
100
AcDbEntity
  8
0
  6
Continuous
 62
     8
370
    15
100
AcDbLine
 10
783.8097100307
 20
398.1670571035
 30
0.0
 11
751.9097100307
 21
398.1670571035
 31
0.0
  0
LINE
  5
237
330
1F
100
AcDbEntity
  8
0
  6
Continuous
 62
     8
370
    15
100
AcDbLine
 10
204.8097100307
 20
453.6344911578
 30
0.0
 11
141.0097100307
 21
453.6344911578
 31
0.0
  0
LINE
  5
238
330
1F
100
AcDbEntity
  8
0
  6
Continuous
 62
     8
370
    15
100
AcDbLine
 10
204.8097100307
 20
398.1670571035
 30
0.0
 11
141.0097100307
 21
398.1670571035
 31
0.0
  0
LINE
  5
239
330
1F
100
AcDbEntity
  8
0
  6
Continuous
 62
     8
370
    15
100
AcDbLine
 10
204.7457968037
 20
397.394593879
 30
0.0
 11
141.0736232577
 21
397.394593879
 31
0.0
  0
LINE
  5
23A
330
1F
100
AcDbEntity
  8
0
  6
Continuous
 62
     8
370
    15
100
AcDbLine
 10
595.4097100307
 20
454.7844911578
 30
0.0
 11
719.4727780449
 21
454.7844911578
 31
0.0
  0
LINE
  5
23B
330
1F
100
AcDbEntity
  8
0
  6
Continuous
 62
     8
370
    15
100
AcDbLine
 10
784.3466420165
 20
454.7844911578
 30
0.0
 11
795.4097100307
 21
454.7844911578
 31
0.0
  0
LINE
  5
23C
330
1F
100
AcDbEntity
  8
0
  6
Continuous
 62
     8
370
    15
100
AcDbLine
 10
595.4097100307
 20
447.2844911578
 30
0.0
 11
720.0097100307
 21
447.2844911578
 31
0.0
  0
LINE
  5
23D
330
1F
100
AcDbEntity
  8
0
  6
Continuous
 62
     8
370
    15
100
AcDbLine
 10
783.8097100307
 20
447.2844911578
 30
0.0
 11
795.4097100307
 21
447.2844911578
 31
0.0
  0
ENDSEC
  0
SECTION
  2
OBJECTS
  0
DICTIONARY
  5
C
330
0
100
AcDbDictionary
281
     1
  3
ACAD_GROUP
350
D
  3
ACAD_LAYOUT
350
1A
  3
ACAD_MLINESTYLE
350
17
  3
ACAD_PLOTSETTINGS
350
19
  3
ACAD_PLOTSTYLENAME
350
E
  0
DICTIONARY
  5
D
102
{ACAD_REACTORS
330
C
102
}
330
C
100
AcDbDictionary
281
     1
  0
DICTIONARY
  5
1A
102
{ACAD_REACTORS
330
C
102
}
330
C
100
AcDbDictionary
281
     1
  3
Layout1
350
1E
  3
Layout2
350
26
  3
Model
350
22
  0
DICTIONARY
  5
17
102
{ACAD_REACTORS
330
C
102
}
330
C
100
AcDbDictionary
281
     1
  3
Standard
350
18
  0
DICTIONARY
  5
19
102
{ACAD_REACTORS
330
C
102
}
330
C
100
AcDbDictionary
281
     1
  0
ACDBDICTIONARYWDFLT
  5
E
102
{ACAD_REACTORS
330
C
102
}
330
C
100
AcDbDictionary
281
     1
  3
Normal
350
F
100
AcDbDictionaryWithDefault
340
F
  0
LAYOUT
  5
1E
102
{ACAD_REACTORS
330
1A
102
}
330
1A
100
AcDbPlotSettings
  1

  2
none_device
  4

  6

 40
0.0
 41
0.0
 42
0.0
 43
0.0
 44
0.0
 45
0.0
 46
0.0
 47
0.0
 48
0.0
 49
0.0
140
0.0
141
0.0
142
1.0
143
1.0
 70
   688
 72
     0
 73
     0
 74
     5
  7

 75
    16
147
1.0
148
0.0
149
0.0
100
AcDbLayout
  1
Layout1
 70
     1
 71
     1
 10
0.0
 20
0.0
 11
420.0
 21
297.0
 12
0.0
 22
0.0
 32
0.0
 14
1.0000000000E+20
 24
1.0000000000E+20
 34
1.0000000000E+20
 15
-1.0000000000E+20
 25
-1.0000000000E+20
 35
-1.0000000000E+20
146
0.0
 13
0.0
 23
0.0
 33
0.0
 16
1.0
 26
0.0
 36
0.0
 17
0.0
 27
1.0
 37
0.0
 76
     0
330
1B
  0
LAYOUT
  5
26
102
{ACAD_REACTORS
330
1A
102
}
330
1A
100
AcDbPlotSettings
  1

  2
none_device
  4

  6

 40
0.0
 41
0.0
 42
0.0
 43
0.0
 44
0.0
 45
0.0
 46
0.0
 47
0.0
 48
0.0
 49
0.0
140
0.0
141
0.0
142
1.0
143
1.0
 70
   688
 72
     0
 73
     0
 74
     5
  7

 75
    16
147
1.0
148
0.0
149
0.0
100
AcDbLayout
  1
Layout2
 70
     1
 71
     2
 10
0.0
 20
0.0
 11
0.0
 21
0.0
 12
0.0
 22
0.0
 32
0.0
 14
0.0
 24
0.0
 34
0.0
 15
0.0
 25
0.0
 35
0.0
146
0.0
 13
0.0
 23
0.0
 33
0.0
 16
1.0
 26
0.0
 36
0.0
 17
0.0
 27
1.0
 37
0.0
 76
     0
330
23
  0
LAYOUT
  5
22
102
{ACAD_REACTORS
330
1A
102
}
330
1A
100
AcDbPlotSettings
  1

  2
none_device
  4

  6

 40
0.0
 41
0.0
 42
0.0
 43
0.0
 44
0.0
 45
0.0
 46
0.0
 47
0.0
 48
0.0
 49
0.0
140
0.0
141
0.0
142
1.0
143
1.0
 70
  1712
 72
     0
 73
     0
 74
     0
  7

 75
     0
147
1.0
148
0.0
149
0.0
100
AcDbLayout
  1
Model
 70
     1
 71
     0
 10
0.0
 20
0.0
 11
1000.0
 21
1000.0
 12
0.0
 22
0.0
 32
0.0
 14
0.0
 24
0.0
 34
0.0
 15
1000.0
 25
1000.0
 35
0.0
146
0.0
 13
0.0
 23
0.0
 33
0.0
 16
1.0
 26
0.0
 36
0.0
 17
0.0
 27
1.0
 37
0.0
 76
     0
330
1F
331
29
  0
MLINESTYLE
  5
18
102
{ACAD_REACTORS
330
17
102
}
330
17
100
AcDbMlineStyle
  2
Standard
 70
     0
  3

 62
   256
 51
90.0
 52
90.0
 71
     2
 49
0.5
 62
   256
  6
BYLAYER
 49
-0.5
 62
   256
  6
BYLAYER
  0
ACDBPLACEHOLDER
  5
F
102
{ACAD_REACTORS
330
E
102
}
330
E
  0
ENDSEC
  0
EOF
