  0
SECTION
  2
HEADER
  9
$ACADVER
  1
AC1015
  9
$ACADMAINTVER
 70
     6
  9
$DWGCODEPAGE
  3
ANSI_1252
  9
$INSBASE
 10
0.0
 20
0.0
 30
0.0
  9
$EXTMIN
 10
0.0
 20
0.0
 30
0.0
  9
$EXTMAX
 10
1000.0
 20
1000.0
 30
0.0
  9
$LIMMIN
 10
0.0
 20
0.0
  9
$LIMMAX
 10
1000.0
 20
1000.0
  9
$ORTHOMODE
 70
     0
  9
$REGENMODE
 70
     1
  9
$FILLMODE
 70
     1
  9
$QTEXTMODE
 70
     0
  9
$MIRRTEXT
 70
     1
  9
$LTSCALE
 40
1.0
  9
$ATTMODE
 70
     1
  9
$TEXTSIZE
 40
3.5
  9
$TRACEWID
 40
1.0
  9
$TEXTSTYLE
  7
Standard
  9
$CLAYER
  8
0
  9
$CELTYPE
  6
ByLayer
  9
$CECOLOR
 62
   256
  9
$CELTSCALE
 40
1.0
  9
$DISPSILH
 70
     0
  9
$DIMSCALE
 40
1.0
  9
$DIMASZ
 40
3.302
  9
$DIMEXO
 40
1.0
  9
$DIMDLI
 40
3.75
  9
$DIMRND
 40
0.0
  9
$DIMDLE
 40
0.0
  9
$DIMEXE
 40
1.0
  9
$DIMTP
 40
0.0
  9
$DIMTM
 40
0.0
  9
$DIMTXT
 40
3.5
  9
$DIMCEN
 40
2.5
  9
$DIMTSZ
 40
0.0
  9
$DIMTOL
 70
     0
  9
$DIMLIM
 70
     0
  9
$DIMTIH
 70
     1
  9
$DIMTOH
 70
     1
  9
$DIMSE1
 70
     0
  9
$DIMSE2
 70
     0
  9
$DIMTAD
 70
     1
  9
$DIMZIN
 70
     0
  9
$DIMBLK
  1

  9
$DIMASO
 70
     1
  9
$DIMSHO
 70
     1
  9
$DIMPOST
  1

  9
$DIMAPOST
  1

  9
$DIMALT
 70
     0
  9
$DIMALTD
 70
     3
  9
$DIMALTF
 40
0.0393700787
  9
$DIMLFAC
 40
1.0
  9
$DIMTOFL
 70
     1
  9
$DIMTVP
 40
0.0
  9
$DIMTIX
 70
     0
  9
$DIMSOXD
 70
     0
  9
$DIMSAH
 70
     0
  9
$DIMBLK1
  1

  9
$DIMBLK2
  1

  9
$DIMSTYLE
  2
ISO-25
  9
$DIMCLRD
 70
     0
  9
$DIMCLRE
 70
     0
  9
$DIMCLRT
 70
     0
  9
$DIMTFAC
 40
1.0
  9
$DIMGAP
 40
5.0
  9
$DIMJUST
 70
     0
  9
$DIMSD1
 70
     0
  9
$DIMSD2
 70
     0
  9
$DIMTOLJ
 70
     0
  9
$DIMTZIN
 70
     0
  9
$DIMALTZ
 70
     0
  9
$DIMALTTZ
 70
     0
  9
$DIMUPT
 70
     0
  9
$DIMDEC
 70
     1
  9
$DIMTDEC
 70
     1
  9
$DIMALTU
 70
     2
  9
$DIMALTTD
 70
     3
  9
$DIMTXSTY
  7
Standard
  9
$DIMAUNIT
 70
     0
  9
$DIMADEC
 70
     1
  9
$DIMALTRND
 40
0.0
  9
$DIMAZIN
 70
     0
  9
$DIMDSEP
 70
    44
  9
$DIMATFIT
 70
     3
  9
$DIMFRAC
 70
     0
  9
$DIMLDRBLK
  1

  9
$DIMLUNIT
 70
     2
  9
$DIMLWD
 70
    -2
  9
$DIMLWE
 70
    -2
  9
$DIMTMOVE
 70
     0
  9
$LUNITS
 70
     2
  9
$LUPREC
 70
     1
  9
$SKETCHINC
 40
1.0
  9
$FILLETRAD
 40
10.0
  9
$AUNITS
 70
     0
  9
$AUPREC
 70
     1
  9
$MENU
  1
.
  9
$ELEVATION
 40
0.0
  9
$PELEVATION
 40
0.0
  9
$THICKNESS
 40
0.0
  9
$LIMCHECK
 70
     0
  9
$CHAMFERA
 40
0.0
  9
$CHAMFERB
 40
0.0
  9
$CHAMFERC
 40
0.0
  9
$CHAMFERD
 40
0.0
  9
$SKPOLY
 70
     0
  9
$TDCREATE
 40
2459954.630052164
  9
$TDUCREATE
 40
2459954.630052164
  9
$TDUPDATE
 40
2459954.630052905
  9
$TDUUPDATE
 40
2459954.630052905
  9
$TDINDWG
 40
0.0000000116
  9
$TDUSRTIMER
 40
0.0000000116
  9
$USRTIMER
 70
     1
  9
$ANGBASE
 50
0.0
  9
$ANGDIR
 70
     0
  9
$PDMODE
 70
     0
  9
$PDSIZE
 40
-1.0
  9
$PLINEWID
 40
0.0
  9
$SPLFRAME
 70
     0
  9
$SPLINETYPE
 70
     6
  9
$SPLINESEGS
 70
     8
  9
$HANDSEED
  5
42A
  9
$SURFTAB1
 70
     6
  9
$SURFTAB2
 70
     6
  9
$SURFTYPE
 70
     6
  9
$SURFU
 70
     6
  9
$SURFV
 70
     6
  9
$UCSBASE
  2

  9
$UCSNAME
  2

  9
$UCSORG
 10
0.0
 20
0.0
 30
0.0
  9
$UCSXDIR
 10
1.0
 20
0.0
 30
0.0
  9
$UCSYDIR
 10
0.0
 20
1.0
 30
0.0
  9
$UCSORTHOREF
  2

  9
$UCSORTHOVIEW
 70
     0
  9
$UCSORGTOP
 10
0.0
 20
0.0
 30
0.0
  9
$UCSORGBOTTOM
 10
0.0
 20
0.0
 30
0.0
  9
$UCSORGLEFT
 10
0.0
 20
0.0
 30
0.0
  9
$UCSORGRIGHT
 10
0.0
 20
0.0
 30
0.0
  9
$UCSORGFRONT
 10
0.0
 20
0.0
 30
0.0
  9
$UCSORGBACK
 10
0.0
 20
0.0
 30
0.0
  9
$PUCSBASE
  2

  9
$PUCSNAME
  2

  9
$PUCSORG
 10
0.0
 20
0.0
 30
0.0
  9
$PUCSXDIR
 10
1.0
 20
0.0
 30
0.0
  9
$PUCSYDIR
 10
0.0
 20
1.0
 30
0.0
  9
$PUCSORTHOREF
  2

  9
$PUCSORTHOVIEW
 70
     0
  9
$PUCSORGTOP
 10
0.0
 20
0.0
 30
0.0
  9
$PUCSORGBOTTOM
 10
0.0
 20
0.0
 30
0.0
  9
$PUCSORGLEFT
 10
0.0
 20
0.0
 30
0.0
  9
$PUCSORGRIGHT
 10
0.0
 20
0.0
 30
0.0
  9
$PUCSORGFRONT
 10
0.0
 20
0.0
 30
0.0
  9
$PUCSORGBACK
 10
0.0
 20
0.0
 30
0.0
  9
$USERI1
 70
     0
  9
$USERI2
 70
     0
  9
$USERI3
 70
     0
  9
$USERI4
 70
     0
  9
$USERI5
 70
     0
  9
$USERR1
 40
0.0
  9
$USERR2
 40
0.0
  9
$USERR3
 40
0.0
  9
$USERR4
 40
0.0
  9
$USERR5
 40
0.0
  9
$WORLDVIEW
 70
     1
  9
$SHADEDGE
 70
     3
  9
$SHADEDIF
 70
    70
  9
$TILEMODE
 70
     1
  9
$MAXACTVP
 70
    64
  9
$PINSBASE
 10
0.0
 20
0.0
 30
0.0
  9
$PLIMCHECK
 70
     0
  9
$PEXTMIN
 10
1.0000000000E+20
 20
1.0000000000E+20
 30
1.0000000000E+20
  9
$PEXTMAX
 10
-1.0000000000E+20
 20
-1.0000000000E+20
 30
-1.0000000000E+20
  9
$PLIMMIN
 10
0.0
 20
0.0
  9
$PLIMMAX
 10
420.0
 20
297.0
  9
$UNITMODE
 70
     0
  9
$VISRETAIN
 70
     1
  9
$PLINEGEN
 70
     0
  9
$PSLTSCALE
 70
     1
  9
$TREEDEPTH
 70
  3020
  9
$CMLSTYLE
  2
Standard
  9
$CMLJUST
 70
     0
  9
$CMLSCALE
 40
20.0
  9
$PROXYGRAPHICS
 70
     1
  9
$MEASUREMENT
 70
     1
  9
$CELWEIGHT
370
    -1
  9
$ENDCAPS
280
     0
  9
$JOINSTYLE
280
     0
  9
$LWDISPLAY
290
     1
  9
$INSUNITS
 70
     4
  9
$HYPERLINKBASE
  1

  9
$STYLESHEET
  1

  9
$XEDIT
290
     1
  9
$CEPSNTYPE
380
     0
  9
$PSTYLEMODE
290
     1
  9
$FINGERPRINTGUID
  2
{dc11c6e8-3d0b-4533-bf4a-b80a01e932a7}
  9
$VERSIONGUID
  2
{FAEB1C32-E019-11D5-929B-00C0DF256EC4}
  9
$EXTNAMES
290
     1
  9
$PSVPSCALE
 40
0.0
  9
$OLESTARTUP
290
     0
  0
ENDSEC
  0
SECTION
  2
CLASSES
  0
CLASS
  1
ACDBDICTIONARYWDFLT
  2
AcDbDictionaryWithDefault
  3
ObjectDBX Classes
 90
        0
280
     0
281
     0
  0
CLASS
  1
VISUALSTYLE
  2
AcDbVisualStyle
  3
ObjectDBX Classes
 90
     4095
280
     0
281
     0
  0
CLASS
  1
MATERIAL
  2
AcDbMaterial
  3
ObjectDBX Classes
 90
     1153
280
     0
281
     0
  0
CLASS
  1
SCALE
  2
AcDbScale
  3
ObjectDBX Classes
 90
     1153
280
     0
281
     0
  0
CLASS
  1
TABLESTYLE
  2
AcDbTableStyle
  3
ObjectDBX Classes
 90
     4095
280
     0
281
     0
  0
CLASS
  1
MLEADERSTYLE
  2
AcDbMLeaderStyle
  3
ACDB_MLEADERSTYLE_CLASS
 90
     4095
280
     0
281
     0
  0
CLASS
  1
SUN
  2
AcDbSun
  3
SCENEOE
 90
     1153
280
     0
281
     0
  0
CLASS
  1
ACDBPLACEHOLDER
  2
AcDbPlaceHolder
  3
ObjectDBX Classes
 90
        0
280
     0
281
     0
  0
CLASS
  1
LAYOUT
  2
AcDbLayout
  3
ObjectDBX Classes
 90
        0
280
     0
281
     0
  0
ENDSEC
  0
SECTION
  2
TABLES
  0
TABLE
  2
VPORT
  5
8
330
0
100
AcDbSymbolTable
 70
     1
  0
VPORT
  5
29
330
8
100
AcDbSymbolTableRecord
100
AcDbViewportTableRecord
  2
*Active
 70
     0
 10
0.0
 20
0.0
 11
1.0
 21
1.0
 12
500.0
 22
500.0
 13
0.0
 23
0.0
 14
10.0
 24
10.0
 15
10.0
 25
10.0
 16
0.0
 26
0.0
 36
1.0
 17
0.0
 27
0.0
 37
0.0
 40
1000.0
 41
1.0
 42
50.0
 43
0.0
 44
0.0
 50
0.0
 51
0.0
 71
     0
 72
  2000
 73
     1
 74
     3
 75
     0
 76
     0
 77
     0
 78
     0
281
     0
 65
     1
110
0.0
120
0.0
130
0.0
111
1.0
121
0.0
131
0.0
112
0.0
122
1.0
132
0.0
 79
     0
146
0.0
  0
ENDTAB
  0
TABLE
  2
LTYPE
  5
5
330
0
100
AcDbSymbolTable
 70
     6
  0
LTYPE
  5
14
330
5
100
AcDbSymbolTableRecord
100
AcDbLinetypeTableRecord
  2
ByBlock
 70
     0
  3

 72
    65
 73
     0
 40
0.0
  0
LTYPE
  5
15
330
5
100
AcDbSymbolTableRecord
100
AcDbLinetypeTableRecord
  2
ByLayer
 70
     0
  3

 72
    65
 73
     0
 40
0.0
  0
LTYPE
  5
16
330
5
100
AcDbSymbolTableRecord
100
AcDbLinetypeTableRecord
  2
Continuous
 70
     0
  3
Solid line
 72
    65
 73
     0
 40
0.0
  0
LTYPE
  5
6E
330
5
100
AcDbSymbolTableRecord
100
AcDbLinetypeTableRecord
  2
HIDDEN
 70
     0
  3
Hidden __ __ __ __ __ __ __ __ __ __ __ __ __ __
 72
    65
 73
     2
 40
1.905
 49
1.27
 74
     0
 49
-0.635
 74
     0
  0
LTYPE
  5
6F
330
5
100
AcDbSymbolTableRecord
100
AcDbLinetypeTableRecord
  2
PHANTOM
 70
     0
  3
Phantom ______  __  __  ______  __  __  ______
 72
    65
 73
     6
 40
12.7
 49
6.35
 74
     0
 49
-1.27
 74
     0
 49
1.27
 74
     0
 49
-1.27
 74
     0
 49
1.27
 74
     0
 49
-1.27
 74
     0
  0
LTYPE
  5
70
330
5
100
AcDbSymbolTableRecord
100
AcDbLinetypeTableRecord
  2
CENTER
 70
     0
  3
Center ____ _ ____ _ ____ _ ____ _ ____ _ ____
 72
    65
 73
     4
 40
10.16
 49
6.35
 74
     0
 49
-1.27
 74
     0
 49
1.27
 74
     0
 49
-1.27
 74
     0
  0
LTYPE
  5
71
330
5
100
AcDbSymbolTableRecord
100
AcDbLinetypeTableRecord
  2
CENTERX2
 70
     0
  3
Center (2x) ________  __  ________  __  _____
 72
    65
 73
     4
 40
20.32
 49
12.7
 74
     0
 49
-2.54
 74
     0
 49
2.54
 74
     0
 49
-2.54
 74
     0
  0
LTYPE
  5
72
330
5
100
AcDbSymbolTableRecord
100
AcDbLinetypeTableRecord
  2
DOT2
 70
     0
  3
Dot (.5x) ........................................
 72
    65
 73
     2
 40
0.635
 49
0.0
 74
     0
 49
-0.635
 74
     0
  0
ENDTAB
  0
TABLE
  2
LAYER
  5
2
330
0
100
AcDbSymbolTable
 70
     5
  0
LAYER
  5
10
330
2
100
AcDbSymbolTableRecord
100
AcDbLayerTableRecord
  2
0
 70
     0
 62
     7
  6
Continuous
370
    -3
390
F
  0
LAYER
  5
73
330
2
100
AcDbSymbolTableRecord
100
AcDbLayerTableRecord
  2
FORMAT
 70
     0
 62
     7
  6
Continuous
370
    -3
390
F
  0
LAYER
  5
74
330
2
100
AcDbSymbolTableRecord
100
AcDbLayerTableRecord
  2
SLD-0
 70
     0
 62
     1
  6
Continuous
370
    -3
390
F
  0
LAYER
  5
75
330
2
100
AcDbSymbolTableRecord
100
AcDbLayerTableRecord
  2
WATERMARK
 70
     0
 62
     1
  6
Continuous
370
    -3
390
F
  0
LAYER
  5
76
330
2
100
AcDbSymbolTableRecord
100
AcDbLayerTableRecord
  2
PRIMARY
 70
     0
 62
   179
  6
Continuous
370
    -3
390
F
  0
ENDTAB
  0
TABLE
  2
STYLE
  5
3
330
0
100
AcDbSymbolTable
 70
     1
  0
STYLE
  5
11
330
3
100
AcDbSymbolTableRecord
100
AcDbTextStyleTableRecord
  2
Standard
 70
     0
 40
0.0
 41
1.0
 50
0.0
 71
     0
 42
3.5
  3
txt
  4

  0
ENDTAB
  0
TABLE
  2
VIEW
  5
6
330
0
100
AcDbSymbolTable
 70
     0
  0
ENDTAB
  0
TABLE
  2
UCS
  5
7
330
0
100
AcDbSymbolTable
 70
     0
  0
ENDTAB
  0
TABLE
  2
APPID
  5
9
330
0
100
AcDbSymbolTable
 70
     1
  0
APPID
  5
12
330
9
100
AcDbSymbolTableRecord
100
AcDbRegAppTableRecord
  2
ACAD
 70
     0
  0
ENDTAB
  0
TABLE
  2
DIMSTYLE
  5
A
330
0
100
AcDbSymbolTable
 70
     1
100
AcDbDimStyleTable
  0
DIMSTYLE
105
27
330
A
100
AcDbSymbolTableRecord
100
AcDbDimStyleTableRecord
  2
ISO-25
 70
     0
 41
2.5
 42
0.625
 43
3.75
 44
1.25
 73
     0
 74
     0
 77
     1
 78
     8
140
2.5
141
2.5
143
0.0393700787
147
0.625
171
     3
172
     1
178
     0
271
     2
272
     2
274
     3
278
    44
283
     0
284
     8
340
11
  0
ENDTAB
  0
TABLE
  2
BLOCK_RECORD
  5
1
330
0
100
AcDbSymbolTable
 70
     2
  0
BLOCK_RECORD
  5
1F
330
1
100
AcDbSymbolTableRecord
100
AcDbBlockTableRecord
  2
*Model_Space
340
22
  0
BLOCK_RECORD
  5
1B
330
1
100
AcDbSymbolTableRecord
100
AcDbBlockTableRecord
  2
*Paper_Space
340
1E
  0
BLOCK_RECORD
  5
23
330
1
100
AcDbSymbolTableRecord
100
AcDbBlockTableRecord
  2
*Paper_Space0
340
26
  0
BLOCK_RECORD
  5
77
330
1
100
AcDbSymbolTableRecord
100
AcDbBlockTableRecord
  2
Falcon Logo 2020
340
0
  0
ENDTAB
  0
ENDSEC
  0
SECTION
  2
BLOCKS
  0
BLOCK
  5
20
330
1F
100
AcDbEntity
  8
0
100
AcDbBlockBegin
  2
*Model_Space
 70
     0
 10
0.0
 20
0.0
 30
0.0
  3
*Model_Space
  1

  0
ENDBLK
  5
21
330
1F
100
AcDbEntity
  8
0
100
AcDbBlockEnd
  0
BLOCK
  5
1C
330
1B
100
AcDbEntity
 67
     1
  8
0
100
AcDbBlockBegin
  2
*Paper_Space
 70
     0
 10
0.0
 20
0.0
 30
0.0
  3
*Paper_Space
  1

  0
ENDBLK
  5
1D
330
1B
100
AcDbEntity
 67
     1
  8
0
100
AcDbBlockEnd
  0
BLOCK
  5
24
330
23
100
AcDbEntity
  8
0
100
AcDbBlockBegin
  2
*Paper_Space0
 70
     0
 10
0.0
 20
0.0
 30
0.0
  3
*Paper_Space0
  1

  0
ENDBLK
  5
25
330
23
100
AcDbEntity
  8
0
100
AcDbBlockEnd
  0
BLOCK
  5
78
330
77
100
AcDbEntity
  8
0
100
AcDbBlockBegin
  2
Falcon Logo 2020
 70
     0
 10
0.0
 20
0.0
 30
0.0
  3
Falcon Logo 2020
  1

  0
LINE
  5
7A
330
77
100
AcDbEntity
  8
0
  6
Continuous
 62
     7
370
    18
100
AcDbLine
 10
0.2366362149
 20
-25.099120703
 30
0.0
 11
0.1890676051
 21
-25.1850754693
 31
0.0
  0
LINE
  5
7B
330
77
100
AcDbEntity
  8
0
  6
Continuous
 62
     7
370
    18
100
AcDbLine
 10
-8.9546345587
 20
-34.8305583248
 30
0.0
 11
-8.8845902523
 21
-34.8534799981
 31
0.0
  0
LINE
  5
7C
330
77
100
AcDbEntity
  8
0
  6
Continuous
 62
     7
370
    18
100
AcDbLine
 10
1.3975224119
 20
-24.3176861209
 30
0.0
 11
1.0342487254
 21
-24.0430667658
 31
0.0
  0
LINE
  5
7D
330
77
100
AcDbEntity
  8
0
  6
Continuous
 62
     7
370
    18
100
AcDbLine
 10
-1.344635895
 20
-16.4400365624
 30
0.0
 11
-1.3491582948
 21
-16.4379044226
 31
0.0
  0
LINE
  5
7E
330
77
100
AcDbEntity
  8
0
  6
Continuous
 62
     7
370
    18
100
AcDbLine
 10
7.8090812831
 20
-19.1315273814
 30
0.0
 11
7.8091802885
 21
-19.1313230883
 31
0.0
  0
LINE
  5
7F
330
77
100
AcDbEntity
  8
0
  6
Continuous
 62
     7
370
    18
100
AcDbLine
 10
0.0
 20
-1.0296983168
 30
0.0
 11
0.0
 21
1.0296983168
 31
0.0
  0
LINE
  5
80
330
77
100
AcDbEntity
  8
0
  6
Continuous
 62
     7
370
    18
100
AcDbLine
 10
10.0154752928
 20
-30.4004736372
 30
0.0
 11
9.1539977041
 21
-32.0953773775
 31
0.0
  0
LINE
  5
81
330
77
100
AcDbEntity
  8
0
  6
Continuous
 62
     7
370
    18
100
AcDbLine
 10
9.1830081219
 20
-32.1843475956
 30
0.0
 11
9.481427996
 21
-32.3361036526
 31
0.0
  0
LINE
  5
82
330
77
100
AcDbEntity
  8
0
  6
Continuous
 62
     7
370
    18
100
AcDbLine
 10
9.5704389671
 20
-32.3070676322
 30
0.0
 11
10.4992725169
 21
-30.4794480227
 31
0.0
  0
LINE
  5
83
330
77
100
AcDbEntity
  8
0
  6
Continuous
 62
     7
370
    18
100
AcDbLine
 10
12.5467888882
 20
-29.3625787572
 30
0.0
 11
12.3419088888
 21
-29.0978910313
 31
0.0
  0
LINE
  5
84
330
77
100
AcDbEntity
  8
0
  6
Continuous
 62
     7
370
    18
100
AcDbLine
 10
12.8223724068
 20
-30.9599942873
 30
0.0
 11
13.2708466106
 21
-31.0149510216
 31
0.0
  0
LINE
  5
85
330
77
100
AcDbEntity
  8
0
  6
Continuous
 62
     7
370
    18
100
AcDbLine
 10
17.1692492954
 20
-27.2721969661
 30
0.0
 11
17.0622662115
 21
-26.8332975819
 31
0.0
  0
LINE
  5
86
330
77
100
AcDbEntity
  8
0
  6
Continuous
 62
     7
370
    18
100
AcDbLine
 10
9.2674260365
 20
-23.8703966174
 30
0.0
 11
9.2820724332
 21
-23.832346426
 31
0.0
  0
LINE
  5
87
330
77
100
AcDbEntity
  8
0
  6
Continuous
 62
     7
370
    18
100
AcDbLine
 10
7.0444852887
 20
-17.62223308
 30
0.0
 11
7.0437472733
 21
-17.6218725853
 31
0.0
  0
LINE
  5
88
330
77
100
AcDbEntity
  8
0
  6
Continuous
 62
     7
370
    18
100
AcDbLine
 10
3.3695709323
 20
-18.7150893908
 30
0.0
 11
3.3652686317
 21
-18.7077888488
 31
0.0
  0
LINE
  5
89
330
77
100
AcDbEntity
  8
0
  6
Continuous
 62
     7
370
    18
100
AcDbLine
 10
3.3652686317
 20
-18.7077888488
 30
0.0
 11
3.3711671796
 21
-18.8025827031
 31
0.0
  0
LINE
  5
8A
330
77
100
AcDbEntity
  8
0
  6
Continuous
 62
     7
370
    18
100
AcDbLine
 10
3.3963759391
 20
-19.2069459167
 30
0.0
 11
3.4149125726
 21
-19.5041559716
 31
0.0
  0
SPLINE
  5
8B
330
77
100
AcDbEntity
  8
0
  6
Continuous
 62
     7
370
    18
100
AcDbSpline
210
0.0
220
0.0
230
1.0
 70
     8
 71
     3
 72
     8
 73
     4
 74
     0
 42
0.00000001
 43
0.00000001
 40
0.0
 40
0.0
 40
0.0
 40
0.0
 40
1.0
 40
1.0
 40
1.0
 40
1.0
 10
5.852229029515427
 20
-28.4276388766053
 30
0.0
 10
5.825666155886172
 20
-28.53479889167665
 30
0.0
 10
5.788722307073408
 20
-28.64641728306218
 30
0.0
 10
5.745235939283002
 20
-28.75809747055379
 30
0.0
  0
SPLINE
  5
8C
330
77
100
AcDbEntity
  8
0
  6
Continuous
 62
     7
370
    18
100
AcDbSpline
210
0.0
220
0.0
230
1.0
 70
     8
 71
     2
 72
     6
 73
     3
 74
     0
 42
0.00000001
 43
0.00000001
 40
1.0
 40
1.0
 40
1.0
 40
2.0
 40
2.0
 40
2.0
 10
5.745235939283002
 20
-28.75809747055379
 30
0.0
 10
5.531735298312616
 20
-29.30641496529977
 30
0.0
 10
5.166807901578401
 20
-29.85360333242915
 30
0.0
  0
SPLINE
  5
8D
330
77
100
AcDbEntity
  8
0
  6
Continuous
 62
     7
370
    18
100
AcDbSpline
210
0.0
220
0.0
230
1.0
 70
     8
 71
     3
 72
     8
 73
     4
 74
     0
 42
0.00000001
 43
0.00000001
 40
2.0
 40
2.0
 40
2.0
 40
2.0
 40
3.0
 40
3.0
 40
3.0
 40
3.0
 10
5.166807901578401
 20
-29.85360333242915
 30
0.0
 10
6.311772697024359
 20
-30.87441642829223
 30
0.0
 10
9.719836507960874
 20
-30.34731494120714
 30
0.0
 10
10.01547729021294
 20
-30.40048416895655
 30
0.0
  0
SPLINE
  5
8E
330
77
100
AcDbEntity
  8
0
  6
Continuous
 62
     7
370
    18
100
AcDbSpline
210
0.0
220
0.0
230
1.0
 70
     8
 71
     3
 72
     8
 73
     4
 74
     0
 42
0.00000001
 43
0.00000001
 40
3.0
 40
3.0
 40
3.0
 40
3.0
 40
3.996689690837188
 40
3.996689690837188
 40
3.996689690837188
 40
3.996689690837188
 10
10.01547729021294
 20
-30.40048416895655
 30
0.0
 10
8.977607483441508
 20
-29.99967069988004
 30
0.0
 10
7.814529315873817
 20
-28.89614101828137
 30
0.0
 10
7.081020323903868
 20
-28.0410800019856
 30
0.0
  0
SPLINE
  5
8F
330
77
100
AcDbEntity
  8
0
  6
Continuous
 62
     7
370
    18
100
AcDbSpline
210
0.0
220
0.0
230
1.0
 70
     8
 71
     3
 72
    14
 73
    10
 74
     0
 42
0.00000001
 43
0.00000001
 40
7.0
 40
7.0
 40
7.0
 40
7.0
 40
8.0
 40
9.0
 40
10.0
 40
11.0
 40
12.0
 40
13.0
 40
14.0
 40
14.0
 40
14.0
 40
14.0
 10
12.78899862649789
 20
-20.9206021766667
 30
0.0
 10
12.75298627797974
 20
-20.92674765647992
 30
0.0
 10
12.68640696953537
 20
-20.93826917416036
 30
0.0
 10
12.46146607510041
 20
-20.9609736022742
 30
0.0
 10
12.36316736583912
 20
-20.81710288078964
 30
0.0
 10
12.19029292109663
 20
-20.56395973963105
 30
0.0
 10
12.22319183016533
 20
-20.44637053703358
 30
0.0
 10
12.12701487946805
 20
-20.29328089794294
 30
0.0
 10
12.03084102575803
 20
-20.14019618848106
 30
0.0
 10
11.83537120556004
 20
-19.86366120251053
 30
0.0
  0
SPLINE
  5
90
330
77
100
AcDbEntity
  8
0
  6
Continuous
 62
     7
370
    18
100
AcDbSpline
210
0.0
220
0.0
230
1.0
 70
     8
 71
     3
 72
    14
 73
    10
 74
     0
 42
0.00000001
 43
0.00000001
 40
0.0
 40
0.0
 40
0.0
 40
0.0
 40
1.0
 40
2.0
 40
3.0
 40
4.0
 40
5.0
 40
6.0
 40
7.0
 40
7.0
 40
7.0
 40
7.0
 10
11.83537120556004
 20
-19.86366120251053
 30
0.0
 10
12.96786884091336
 20
-20.09916183373696
 30
0.0
 10
13.13102812036816
 20
-20.67672009866099
 30
0.0
 10
13.16182644407878
 20
-20.79181058502865
 30
0.0
 10
13.18921773799899
 20
-20.89522906612286
 30
0.0
 10
13.07031240695495
 20
-20.89476265907842
 30
0.0
 10
12.9537126753755
 20
-20.89486911556055
 30
0.0
 10
12.90248106064455
 20
-20.90139629528142
 30
0.0
 10
12.82501097501607
 20
-20.91445669685353
 30
0.0
 10
12.78899862649789
 20
-20.9206021766667
 30
0.0
  0
SPLINE
  5
91
330
77
100
AcDbEntity
  8
0
  6
Continuous
 62
     7
370
    18
100
AcDbSpline
210
0.0
220
0.0
230
1.0
 70
     8
 71
     3
 72
     8
 73
     4
 74
     0
 42
0.00000001
 43
0.00000001
 40
1.0
 40
1.0
 40
1.0
 40
1.0
 40
2.0
 40
2.0
 40
2.0
 40
2.0
 10
0.1890676050530227
 20
-25.18507546927273
 30
0.0
 10
-0.4758636182598079
 20
-26.36818656978759
 30
0.0
 10
-1.071372957931268
 20
-27.62135929727155
 30
0.0
 10
-1.848916090944628
 20
-28.7321574116595
 30
0.0
  0
SPLINE
  5
92
330
77
100
AcDbEntity
  8
0
  6
Continuous
 62
     7
370
    18
100
AcDbSpline
210
0.0
220
0.0
230
1.0
 70
     8
 71
     3
 72
     8
 73
     4
 74
     0
 42
0.00000001
 43
0.00000001
 40
5.0
 40
5.0
 40
5.0
 40
5.0
 40
6.0
 40
6.0
 40
6.0
 40
6.0
 10
5.741387158368082
 20
-27.62554423736086
 30
0.0
 10
5.846722846369613
 20
-27.83071469821159
 30
0.0
 10
5.917083786139072
 20
-28.10116493603904
 30
0.0
 10
5.852229029515427
 20
-28.4276388766053
 30
0.0
  0
SPLINE
  5
93
330
77
100
AcDbEntity
  8
0
  6
Continuous
 62
     7
370
    18
100
AcDbSpline
210
0.0
220
0.0
230
1.0
 70
     8
 71
     3
 72
     8
 73
     4
 74
     0
 42
0.00000001
 43
0.00000001
 40
2.0
 40
2.0
 40
2.0
 40
2.0
 40
3.0
 40
3.0
 40
3.0
 40
3.0
 10
-1.848916090944628
 20
-28.7321574116595
 30
0.0
 10
-2.58099700615287
 20
-29.77807514316875
 30
0.0
 10
-3.400555133943328
 20
-30.75794226768769
 30
0.0
 10
-4.320163121001804
 20
-31.64441810803642
 30
0.0
  0
SPLINE
  5
94
330
77
100
AcDbEntity
  8
0
  6
Continuous
 62
     7
370
    18
100
AcDbSpline
210
0.0
220
0.0
230
1.0
 70
     8
 71
     3
 72
     8
 73
     4
 74
     0
 42
0.00000001
 43
0.00000001
 40
3.0
 40
3.0
 40
3.0
 40
3.0
 40
4.0
 40
4.0
 40
4.0
 40
4.0
 10
-4.320163121001804
 20
-31.64441810803642
 30
0.0
 10
-5.502285688120724
 20
-32.78397107599655
 30
0.0
 10
-6.842602889403164
 20
-33.79629665674205
 30
0.0
 10
-8.312643520423714
 20
-34.53636241310925
 30
0.0
  0
SPLINE
  5
95
330
77
100
AcDbEntity
  8
0
  6
Continuous
 62
     7
370
    18
100
AcDbSpline
210
0.0
220
0.0
230
1.0
 70
     8
 71
     3
 72
     8
 73
     4
 74
     0
 42
0.00000001
 43
0.00000001
 40
0.0
 40
0.0
 40
0.0
 40
0.0
 40
1.0
 40
1.0
 40
1.0
 40
1.0
 10
13.16248097184179
 20
-22.77811969809535
 30
0.0
 10
13.32158274024408
 20
-22.71852038409298
 30
0.0
 10
13.49557540158558
 20
-22.54791198237409
 30
0.0
 10
13.60867884934522
 20
-22.41373778363303
 30
0.0
  0
SPLINE
  5
96
330
77
100
AcDbEntity
  8
0
  6
Continuous
 62
     7
370
    18
100
AcDbSpline
210
0.0
220
0.0
230
1.0
 70
     8
 71
     3
 72
     8
 73
     4
 74
     0
 42
0.00000001
 43
0.00000001
 40
1.0
 40
1.0
 40
1.0
 40
1.0
 40
2.0
 40
2.0
 40
2.0
 40
2.0
 10
13.60867884934522
 20
-22.41373778363303
 30
0.0
 10
14.06883090410567
 20
-21.86791668638103
 30
0.0
 10
13.93824647055738
 20
-21.10927008942834
 30
0.0
 10
13.63564806322252
 20
-20.52311487241799
 30
0.0
  0
SPLINE
  5
97
330
77
100
AcDbEntity
  8
0
  6
Continuous
 62
     7
370
    18
100
AcDbSpline
210
0.0
220
0.0
230
1.0
 70
     8
 71
     3
 72
     8
 73
     4
 74
     0
 42
0.00000001
 43
0.00000001
 40
2.0
 40
2.0
 40
2.0
 40
2.0
 40
3.0
 40
3.0
 40
3.0
 40
3.0
 10
13.63564806322252
 20
-20.52311487241799
 30
0.0
 10
13.28964627126481
 20
-19.85285410357718
 30
0.0
 10
12.67648338579735
 20
-19.35824964276486
 30
0.0
 10
12.02812778214086
 20
-18.99653111143571
 30
0.0
  0
SPLINE
  5
98
330
77
100
AcDbEntity
  8
0
  6
Continuous
 62
     7
370
    18
100
AcDbSpline
210
0.0
220
0.0
230
1.0
 70
     8
 71
     3
 72
     8
 73
     4
 74
     0
 42
0.00000001
 43
0.00000001
 40
3.0
 40
3.0
 40
3.0
 40
3.0
 40
4.0
 40
4.0
 40
4.0
 40
4.0
 10
12.02812778214086
 20
-18.99653111143571
 30
0.0
 10
11.39165828893943
 20
-18.64115679256055
 30
0.0
 10
10.65675821014571
 20
-18.52555054647402
 30
0.0
 10
9.935944716227333
 20
-18.57712058838266
 30
0.0
  0
SPLINE
  5
99
330
77
100
AcDbEntity
  8
0
  6
Continuous
 62
     7
370
    18
100
AcDbSpline
210
0.0
220
0.0
230
1.0
 70
     8
 71
     3
 72
     8
 73
     4
 74
     0
 42
0.00000001
 43
0.00000001
 40
4.0
 40
4.0
 40
4.0
 40
4.0
 40
5.0
 40
5.0
 40
5.0
 40
5.0
 10
9.935944716227333
 20
-18.57712058838266
 30
0.0
 10
9.765303020833768
 20
-18.58949090353762
 30
0.0
 10
9.595649831281627
 20
-18.61121519850877
 30
0.0
 10
9.427025317953943
 20
-18.6398242200312
 30
0.0
  0
SPLINE
  5
9A
330
77
100
AcDbEntity
  8
0
  6
Continuous
 62
     7
370
    18
100
AcDbSpline
210
0.0
220
0.0
230
1.0
 70
     8
 71
     3
 72
     8
 73
     4
 74
     0
 42
0.00000001
 43
0.00000001
 40
5.0
 40
5.0
 40
5.0
 40
5.0
 40
6.0
 40
6.0
 40
6.0
 40
6.0
 10
9.427025317953943
 20
-18.6398242200312
 30
0.0
 10
9.401841746024298
 20
-18.64325493737991
 30
0.0
 10
9.375930374221884
 20
-18.6474270753044
 30
0.0
 10
9.347977710247896
 20
-18.65350684706063
 30
0.0
  0
SPLINE
  5
9B
330
77
100
AcDbEntity
  8
0
  6
Continuous
 62
     7
370
    18
100
AcDbSpline
210
0.0
220
0.0
230
1.0
 70
     8
 71
     3
 72
     8
 73
     4
 74
     0
 42
0.00000001
 43
0.00000001
 40
6.0
 40
6.0
 40
6.0
 40
6.0
 40
7.0
 40
7.0
 40
7.0
 40
7.0
 10
9.347977710247896
 20
-18.65350684706063
 30
0.0
 10
9.3154844368747
 20
-18.66059198688143
 30
0.0
 10
9.281612371694376
 20
-18.66928222686759
 30
0.0
 10
9.248401750735159
 20
-18.67721589591814
 30
0.0
  0
SPLINE
  5
9C
330
77
100
AcDbEntity
  8
0
  6
Continuous
 62
     7
370
    18
100
AcDbSpline
210
0.0
220
0.0
230
1.0
 70
     8
 71
     3
 72
     8
 73
     4
 74
     0
 42
0.00000001
 43
0.00000001
 40
7.0
 40
7.0
 40
7.0
 40
7.0
 40
8.0
 40
8.0
 40
8.0
 40
8.0
 10
9.248401750735159
 20
-18.67721589591814
 30
0.0
 10
8.828729172017946
 20
-18.76183233709977
 30
0.0
 10
8.416325576603711
 20
-18.88669856103988
 30
0.0
 10
8.018919595305736
 20
-19.04403200074751
 30
0.0
  0
SPLINE
  5
9D
330
77
100
AcDbEntity
  8
0
  6
Continuous
 62
     7
370
    18
100
AcDbSpline
210
0.0
220
0.0
230
1.0
 70
     8
 71
     3
 72
     8
 73
     4
 74
     0
 42
0.00000001
 43
0.00000001
 40
8.0
 40
8.0
 40
8.0
 40
8.0
 40
9.0
 40
9.0
 40
9.0
 40
9.0
 10
8.018919595305736
 20
-19.04403200074751
 30
0.0
 10
7.948718757678904
 20
-19.07224882816383
 30
0.0
 10
7.878767955532004
 20
-19.10158741935046
 30
0.0
 10
7.809081283087698
 20
-19.13152738138843
 30
0.0
  0
SPLINE
  5
9E
330
77
100
AcDbEntity
  8
0
  6
Continuous
 62
     7
370
    18
100
AcDbSpline
210
0.0
220
0.0
230
1.0
 70
     8
 71
     3
 72
     8
 73
     4
 74
     0
 42
0.00000001
 43
0.00000001
 40
10.0
 40
10.0
 40
10.0
 40
10.0
 40
11.0
 40
11.0
 40
11.0
 40
11.0
 10
7.809180288493772
 20
-19.13132308829617
 30
0.0
 10
7.802761398942892
 20
-19.13413367961332
 30
0.0
 10
7.796378564323003
 20
-19.1370921325915
 30
0.0
 10
7.789959674772166
 20
-19.13990272390857
 30
0.0
  0
SPLINE
  5
9F
330
77
100
AcDbEntity
  8
0
  6
Continuous
 62
     7
370
    18
100
AcDbSpline
210
0.0
220
0.0
230
1.0
 70
     8
 71
     3
 72
     8
 73
     4
 74
     0
 42
0.00000001
 43
0.00000001
 40
11.0
 40
11.0
 40
11.0
 40
11.0
 40
12.0
 40
12.0
 40
12.0
 40
12.0
 10
7.789959674772166
 20
-19.13990272390857
 30
0.0
 10
7.727199483469478
 20
-19.16702581234913
 30
0.0
 10
7.664805832448564
 20
-19.19491328366098
 30
0.0
 10
7.602701913775588
 20
-19.22344287883286
 30
0.0
  0
SPLINE
  5
A0
330
77
100
AcDbEntity
  8
0
  6
Continuous
 62
     7
370
    18
100
AcDbSpline
210
0.0
220
0.0
230
1.0
 70
     8
 71
     3
 72
     8
 73
     4
 74
     0
 42
0.00000001
 43
0.00000001
 40
12.0
 40
12.0
 40
12.0
 40
12.0
 40
13.0
 40
13.0
 40
13.0
 40
13.0
 10
7.602701913775588
 20
-19.22344287883286
 30
0.0
 10
7.217113319687935
 20
-19.39705344743212
 30
0.0
 10
5.997001551904617
 20
-20.08735799660829
 30
0.0
 10
5.62103742160189
 20
-20.28524495509878
 30
0.0
  0
SPLINE
  5
A1
330
77
100
AcDbEntity
  8
0
  6
Continuous
 62
     7
370
    18
100
AcDbSpline
210
0.0
220
0.0
230
1.0
 70
     8
 71
     3
 72
     8
 73
     4
 74
     0
 42
0.00000001
 43
0.00000001
 40
4.0
 40
4.0
 40
4.0
 40
4.0
 40
5.0
 40
5.0
 40
5.0
 40
5.0
 10
-8.312643520423714
 20
-34.53636241310925
 30
0.0
 10
-8.411034639160002
 20
-34.58584183701119
 30
0.0
 10
-8.836966871753177
 20
-34.8700258468235
 30
0.0
 10
-8.954634558748669
 20
-34.83055832481292
 30
0.0
  0
SPLINE
  5
A2
330
77
100
AcDbEntity
  8
0
  6
Continuous
 62
     7
370
    18
100
AcDbSpline
210
0.0
220
0.0
230
1.0
 70
     8
 71
     3
 72
     8
 73
     4
 74
     0
 42
0.00000001
 43
0.00000001
 40
6.0
 40
6.0
 40
6.0
 40
6.0
 40
7.0
 40
7.0
 40
7.0
 40
7.0
 10
-8.884590252340216
 20
-34.8534799981297
 30
0.0
 10
-1.619323899915008
 20
-33.84056501948026
 30
0.0
 10
-0.8849007908736523
 20
-28.48090738365391
 30
0.0
 10
1.39752241185063
 20
-24.31768612090927
 30
0.0
  0
SPLINE
  5
A3
330
77
100
AcDbEntity
  8
0
  6
Continuous
 62
     7
370
    18
100
AcDbSpline
210
0.0
220
0.0
230
1.0
 70
     8
 71
     3
 72
     8
 73
     4
 74
     0
 42
0.00000001
 43
0.00000001
 40
15.0
 40
15.0
 40
15.0
 40
15.0
 40
16.0
 40
16.0
 40
16.0
 40
16.0
 10
7.61666402024219
 20
-16.14061015178518
 30
0.0
 10
6.37712430883088
 20
-11.21974897891878
 30
0.0
 10
0.5014966551233776
 20
-9.115775052417424
 30
0.0
 10
1.502064263494276
 20
-1.771589632457653
 30
0.0
  0
SPLINE
  5
A4
330
77
100
AcDbEntity
  8
0
  6
Continuous
 62
     7
370
    18
100
AcDbSpline
210
0.0
220
0.0
230
1.0
 70
     8
 71
     2
 72
     6
 73
     3
 74
     0
 42
0.00000001
 43
0.00000001
 40
16.0
 40
16.0
 40
16.0
 40
17.0
 40
17.0
 40
17.0
 10
1.502064263494301
 20
-1.771589632457637
 30
0.0
 10
0.8988127122367296
 20
-1.387303972091294
 30
0.0
 10
0.394445507708313
 20
-2.906964564311894
 30
0.0
  0
SPLINE
  5
A5
330
77
100
AcDbEntity
  8
0
  6
Continuous
 62
     7
370
    18
100
AcDbSpline
210
0.0
220
0.0
230
1.0
 70
     8
 71
     3
 72
     8
 73
     4
 74
     0
 42
0.00000001
 43
0.00000001
 40
17.0
 40
17.0
 40
17.0
 40
17.0
 40
18.0
 40
18.0
 40
18.0
 40
18.0
 10
0.3944455077083129
 20
-2.906964564311893
 30
0.0
 10
0.1589062916464202
 20
-2.432255303561799
 30
0.0
 10
0.0481326418671805
 20
-1.719165557923681
 30
0.0
 10
-0.0000000000000111
 20
-1.029698316824825
 30
0.0
  0
SPLINE
  5
A6
330
77
100
AcDbEntity
  8
0
  6
Continuous
 62
     7
370
    18
100
AcDbSpline
210
0.0
220
0.0
230
1.0
 70
     8
 71
     3
 72
     8
 73
     4
 74
     0
 42
0.00000001
 43
0.00000001
 40
19.0
 40
19.0
 40
19.0
 40
19.0
 40
20.0
 40
20.0
 40
20.0
 40
20.0
 10
-0.000000000000011
 20
1.029698316824825
 30
0.0
 10
-0.247605001678439
 20
0.9563586700206326
 30
0.0
 10
-0.4965992125871336
 20
0.8376424291228968
 30
0.0
 10
-0.7423932761695102
 20
0.6788199880206746
 30
0.0
  0
SPLINE
  5
A7
330
77
100
AcDbEntity
  8
0
  6
Continuous
 62
     7
370
    18
100
AcDbSpline
210
0.0
220
0.0
230
1.0
 70
     8
 71
     3
 72
     8
 73
     4
 74
     0
 42
0.00000001
 43
0.00000001
 40
20.0
 40
20.0
 40
20.0
 40
20.0
 40
21.0
 40
21.0
 40
21.0
 40
21.0
 10
-0.7423932761695041
 20
0.6788199880206758
 30
0.0
 10
-3.773706502500729
 20
-1.088364608817558
 30
0.0
 10
-5.828023551311025
 20
-6.502648922742776
 30
0.0
 10
-6.373622392678747
 20
-10.44545216301364
 30
0.0
  0
SPLINE
  5
A8
330
77
100
AcDbEntity
  8
0
  6
Continuous
 62
     7
370
    18
100
AcDbSpline
210
0.0
220
0.0
230
1.0
 70
     8
 71
     3
 72
     8
 73
     4
 74
     0
 42
0.00000001
 43
0.00000001
 40
21.0
 40
21.0
 40
21.0
 40
21.0
 40
22.0
 40
22.0
 40
22.0
 40
22.0
 10
-6.373622392678747
 20
-10.44545216301364
 30
0.0
 10
-6.534387006384851
 20
-11.6072393176462
 30
0.0
 10
-6.110986063680238
 20
-12.77235598421836
 30
0.0
 10
-5.239490498328086
 20
-13.55729186389973
 30
0.0
  0
SPLINE
  5
A9
330
77
100
AcDbEntity
  8
0
  6
Continuous
 62
     7
370
    18
100
AcDbSpline
210
0.0
220
0.0
230
1.0
 70
     8
 71
     3
 72
     8
 73
     4
 74
     0
 42
0.00000001
 43
0.00000001
 40
22.0
 40
22.0
 40
22.0
 40
22.0
 40
23.0
 40
23.0
 40
23.0
 40
23.0
 10
-5.239490498328086
 20
-13.55729186389973
 30
0.0
 10
-5.069093162935886
 20
-13.71072824031157
 30
0.0
 10
-4.812594020154235
 20
-13.94204896363468
 30
0.0
 10
-4.497635623981145
 20
-14.22616249222083
 30
0.0
  0
SPLINE
  5
AA
330
77
100
AcDbEntity
  8
0
  6
Continuous
 62
     7
370
    18
100
AcDbSpline
210
0.0
220
0.0
230
1.0
 70
     8
 71
     3
 72
     8
 73
     4
 74
     0
 42
0.00000001
 43
0.00000001
 40
23.0
 40
23.0
 40
23.0
 40
23.0
 40
24.0
 40
24.0
 40
24.0
 40
24.0
 10
-4.497635623981145
 20
-14.22616249222083
 30
0.0
 10
-7.377206548962273
 20
-14.3610427235814
 30
0.0
 10
-10.37603432623049
 20
-14.41258052682769
 30
0.0
 10
-13.47142906384564
 20
-11.50579972895087
 30
0.0
  0
SPLINE
  5
AB
330
77
100
AcDbEntity
  8
0
  6
Continuous
 62
     7
370
    18
100
AcDbSpline
210
0.0
220
0.0
230
1.0
 70
     8
 71
     2
 72
     6
 73
     3
 74
     0
 42
0.00000001
 43
0.00000001
 40
24.0
 40
24.0
 40
24.0
 40
25.0
 40
25.0
 40
25.0
 10
-13.47142906384564
 20
-11.50579972895087
 30
0.0
 10
-14.10688605414107
 20
-11.76335116991974
 30
0.0
 10
-13.20042236989913
 20
-13.00202096164688
 30
0.0
  0
SPLINE
  5
AC
330
77
100
AcDbEntity
  8
0
  6
Continuous
 62
     7
370
    18
100
AcDbSpline
210
0.0
220
0.0
230
1.0
 70
     8
 71
     3
 72
     8
 73
     4
 74
     0
 42
0.00000001
 43
0.00000001
 40
25.0
 40
25.0
 40
25.0
 40
25.0
 40
26.0
 40
26.0
 40
26.0
 40
26.0
 10
-13.20042236989913
 20
-13.00202096164688
 30
0.0
 10
-13.70207232315818
 20
-12.92204228168365
 30
0.0
 10
-14.32058558561591
 20
-12.6121679091681
 30
0.0
 10
-14.88582480126041
 20
-12.26649433731928
 30
0.0
  0
SPLINE
  5
AD
330
77
100
AcDbEntity
  8
0
  6
Continuous
 62
     7
370
    18
100
AcDbSpline
210
0.0
220
0.0
230
1.0
 70
     8
 71
     3
 72
     8
 73
     4
 74
     0
 42
0.00000001
 43
0.00000001
 40
26.0
 40
26.0
 40
26.0
 40
26.0
 40
27.0
 40
27.0
 40
27.0
 40
27.0
 10
-14.88582480126041
 20
-12.26649433731928
 30
0.0
 10
-15.11439138607148
 20
-12.10379107541082
 30
0.0
 10
-15.34298592256308
 20
-11.9411337926506
 30
0.0
 10
-15.57155250737237
 20
-11.77843053074102
 30
0.0
  0
SPLINE
  5
AE
330
77
100
AcDbEntity
  8
0
  6
Continuous
 62
     7
370
    18
100
AcDbSpline
210
0.0
220
0.0
230
1.0
 70
     8
 71
     3
 72
     8
 73
     4
 74
     0
 42
0.00000001
 43
0.00000001
 40
27.0
 40
27.0
 40
27.0
 40
27.0
 40
28.0
 40
28.0
 40
28.0
 40
28.0
 10
-15.57155250737237
 20
-11.77843053074102
 30
0.0
 10
-15.54626988054684
 20
-12.43496417244951
 30
0.0
 10
-15.44651697844639
 20
-13.43368074094347
 30
0.0
 10
-15.07122586658969
 20
-14.58147725173132
 30
0.0
  0
SPLINE
  5
AF
330
77
100
AcDbEntity
  8
0
  6
Continuous
 62
     7
370
    18
100
AcDbSpline
210
0.0
220
0.0
230
1.0
 70
     8
 71
     3
 72
     8
 73
     4
 74
     0
 42
0.00000001
 43
0.00000001
 40
28.0
 40
28.0
 40
28.0
 40
28.0
 40
29.0
 40
29.0
 40
29.0
 40
29.0
 10
-15.07122586658969
 20
-14.58147725173132
 30
0.0
 10
-14.14101186928763
 20
-17.42663227492847
 30
0.0
 10
-12.21890524301946
 20
-19.04448598632376
 30
0.0
 10
-11.57411800959374
 20
-19.5729627316439
 30
0.0
  0
SPLINE
  5
B0
330
77
100
AcDbEntity
  8
0
  6
Continuous
 62
     7
370
    18
100
AcDbSpline
210
0.0
220
0.0
230
1.0
 70
     8
 71
     3
 72
     8
 73
     4
 74
     0
 42
0.00000001
 43
0.00000001
 40
29.0
 40
29.0
 40
29.0
 40
29.0
 40
30.0
 40
30.0
 40
30.0
 40
30.0
 10
-11.57411800959374
 20
-19.5729627316439
 30
0.0
 10
-10.2278360673758
 20
-20.67639225726875
 30
0.0
 10
-8.968626575135383
 20
-21.18705865057519
 30
0.0
 10
-8.289256857954726
 20
-21.45628499958021
 30
0.0
  0
SPLINE
  5
B1
330
77
100
AcDbEntity
  8
0
  6
Continuous
 62
     7
370
    18
100
AcDbSpline
210
0.0
220
0.0
230
1.0
 70
     8
 71
     3
 72
     8
 73
     4
 74
     0
 42
0.00000001
 43
0.00000001
 40
30.0
 40
30.0
 40
30.0
 40
30.0
 40
31.0
 40
31.0
 40
31.0
 40
31.0
 10
-8.289256857954726
 20
-21.45628499958021
 30
0.0
 10
-6.483682376184763
 20
-22.17184513279697
 30
0.0
 10
-4.87477560776411
 20
-22.35351920351825
 30
0.0
 10
-3.81330444415229
 20
-22.39201571571204
 30
0.0
  0
SPLINE
  5
B2
330
77
100
AcDbEntity
  8
0
  6
Continuous
 62
     7
370
    18
100
AcDbSpline
210
0.0
220
0.0
230
1.0
 70
     8
 71
     3
 72
     8
 73
     4
 74
     0
 42
0.00000001
 43
0.00000001
 40
31.0
 40
31.0
 40
31.0
 40
31.0
 40
32.0
 40
32.0
 40
32.0
 40
32.0
 10
-3.81330444415229
 20
-22.39201571571204
 30
0.0
 10
-2.745750888684706
 20
-24.06170974884294
 30
0.0
 10
-1.264629867395483
 20
-24.91818512638145
 30
0.0
 10
0.2366295532190317
 20
-25.09914029792422
 30
0.0
  0
SPLINE
  5
B3
330
77
100
AcDbEntity
  8
0
  6
Continuous
 62
     7
370
    18
100
AcDbSpline
210
0.0
220
0.0
230
1.0
 70
     8
 71
     3
 72
     8
 73
     4
 74
     0
 42
0.00000001
 43
0.00000001
 40
32.0
 40
32.0
 40
32.0
 40
32.0
 40
33.0
 40
33.0
 40
33.0
 40
33.0
 10
0.2366295532190317
 20
-25.09914029792422
 30
0.0
 10
0.2368448266661417
 20
-25.0995734306171
 30
0.0
 10
0.2368448266661417
 20
-25.0995734306171
 30
0.0
 10
0.2370729014386109
 20
-25.10002693981265
 30
0.0
  0
SPLINE
  5
B4
330
77
100
AcDbEntity
  8
0
  6
Continuous
 62
     7
370
    18
100
AcDbSpline
210
0.0
220
0.0
230
1.0
 70
     8
 71
     3
 72
     8
 73
     4
 74
     0
 42
0.00000001
 43
0.00000001
 40
33.0
 40
33.0
 40
33.0
 40
33.0
 40
34.0
 40
34.0
 40
34.0
 40
34.0
 10
0.2370729014386109
 20
-25.10002693981265
 30
0.0
 10
-0.4473726928542233
 20
-26.30798726564406
 30
0.0
 10
-1.052723993388068
 20
-27.59471040392042
 30
0.0
 10
-1.848922752625017
 20
-28.73217700654635
 30
0.0
  0
SPLINE
  5
B5
330
77
100
AcDbEntity
  8
0
  6
Continuous
 62
     7
370
    18
100
AcDbSpline
210
0.0
220
0.0
230
1.0
 70
     8
 71
     3
 72
     8
 73
     4
 74
     0
 42
0.00000001
 43
0.00000001
 40
34.0
 40
34.0
 40
34.0
 40
34.0
 40
35.0
 40
35.0
 40
35.0
 40
35.0
 10
-1.848922752625017
 20
-28.73217700654635
 30
0.0
 10
-2.581016469155664
 20
-29.77807436155356
 30
0.0
 10
-3.400574596946121
 20
-30.75794148607251
 30
0.0
 10
-4.320169782681019
 20
-31.64443770292509
 30
0.0
  0
SPLINE
  5
B6
330
77
100
AcDbEntity
  8
0
  6
Continuous
 62
     7
370
    18
100
AcDbSpline
210
0.0
220
0.0
230
1.0
 70
     8
 71
     3
 72
     8
 73
     4
 74
     0
 42
0.00000001
 43
0.00000001
 40
35.0
 40
35.0
 40
35.0
 40
35.0
 40
36.0
 40
36.0
 40
36.0
 40
36.0
 10
-4.320169782681019
 20
-31.64443770292509
 30
0.0
 10
-5.502292349801121
 20
-32.78399067088333
 30
0.0
 10
-6.842609551083555
 20
-33.79631625162889
 30
0.0
 10
-8.312622230422718
 20
-34.53633602884937
 30
0.0
  0
SPLINE
  5
B7
330
77
100
AcDbEntity
  8
0
  6
Continuous
 62
     7
370
    18
100
AcDbSpline
210
0.0
220
0.0
230
1.0
 70
     8
 71
     3
 72
     8
 73
     4
 74
     0
 42
0.00000001
 43
0.00000001
 40
36.0
 40
36.0
 40
36.0
 40
36.0
 40
37.0
 40
37.0
 40
37.0
 40
37.0
 10
-8.312622230422718
 20
-34.53633602884937
 30
0.0
 10
-8.41100054783539
 20
-34.58583582925527
 30
0.0
 10
-8.836986334755972
 20
-34.87002506520831
 30
0.0
 10
-8.95464122042903
 20
-34.83057791969982
 30
0.0
  0
SPLINE
  5
B8
330
77
100
AcDbEntity
  8
0
  6
Continuous
 62
     7
370
    18
100
AcDbSpline
210
0.0
220
0.0
230
1.0
 70
     8
 71
     3
 72
     8
 73
     4
 74
     0
 42
0.00000001
 43
0.00000001
 40
37.0
 40
37.0
 40
37.0
 40
37.0
 40
38.0
 40
38.0
 40
38.0
 40
38.0
 10
-8.95464122042903
 20
-34.83057791969982
 30
0.0
 10
-7.855316701000916
 20
-35.19902224220693
 30
0.0
 10
-6.670985849771815
 20
-35.31257295399734
 30
0.0
 10
-5.520530485207503
 20
-35.38070666342594
 30
0.0
  0
SPLINE
  5
B9
330
77
100
AcDbEntity
  8
0
  6
Continuous
 62
     7
370
    18
100
AcDbSpline
210
0.0
220
0.0
230
1.0
 70
     8
 71
     3
 72
     8
 73
     4
 74
     0
 42
0.00000001
 43
0.00000001
 40
38.0
 40
38.0
 40
38.0
 40
38.0
 40
39.0
 40
39.0
 40
39.0
 40
39.0
 10
-5.520530485207503
 20
-35.38070666342594
 30
0.0
 10
-4.24400827120937
 20
-35.45626070172416
 30
0.0
 10
-2.850018941515092
 20
-35.37210723674404
 30
0.0
 10
-1.633497186371029
 20
-34.95381072794466
 30
0.0
  0
SPLINE
  5
BA
330
77
100
AcDbEntity
  8
0
  6
Continuous
 62
     7
370
    18
100
AcDbSpline
210
0.0
220
0.0
230
1.0
 70
     8
 71
     3
 72
     8
 73
     4
 74
     0
 42
0.00000001
 43
0.00000001
 40
39.0
 40
39.0
 40
39.0
 40
39.0
 40
40.0
 40
40.0
 40
40.0
 40
40.0
 10
-1.633497186371029
 20
-34.95381072794466
 30
0.0
 10
-1.161647758417268
 20
-34.79156986805435
 30
0.0
 10
-0.6998897419386533
 20
-34.60060003392512
 30
0.0
 10
-0.2417020015756544
 20
-34.40340438622162
 30
0.0
  0
SPLINE
  5
BB
330
77
100
AcDbEntity
  8
0
  6
Continuous
 62
     7
370
    18
100
AcDbSpline
210
0.0
220
0.0
230
1.0
 70
     8
 71
     3
 72
     8
 73
     4
 74
     0
 42
0.00000001
 43
0.00000001
 40
40.0
 40
40.0
 40
40.0
 40
40.0
 40
41.0
 40
41.0
 40
41.0
 40
41.0
 10
-0.2417020015756544
 20
-34.40340438622162
 30
0.0
 10
-0.1816605164030941
 20
-34.37756301425404
 30
0.0
 10
0.5680618153143264
 20
-34.09824266291977
 30
0.0
 10
0.5619671856328979
 20
-34.03977754396634
 30
0.0
  0
SPLINE
  5
BC
330
77
100
AcDbEntity
  8
0
  6
Continuous
 62
     7
370
    18
100
AcDbSpline
210
0.0
220
0.0
230
1.0
 70
     8
 71
     3
 72
     8
 73
     4
 74
     0
 42
0.00000001
 43
0.00000001
 40
41.0
 40
41.0
 40
41.0
 40
41.0
 40
42.0
 40
42.0
 40
42.0
 40
42.0
 10
0.5619671856328945
 20
-34.03977754396634
 30
0.0
 10
0.5009923545267035
 20
-33.45272868294924
 30
0.0
 10
0.3892408997618144
 20
-32.91033974047543
 30
0.0
 10
0.4097333630990446
 20
-32.31246460469481
 30
0.0
  0
SPLINE
  5
BD
330
77
100
AcDbEntity
  8
0
  6
Continuous
 62
     7
370
    18
100
AcDbSpline
210
0.0
220
0.0
230
1.0
 70
     8
 71
     3
 72
     8
 73
     4
 74
     0
 42
0.00000001
 43
0.00000001
 40
42.0
 40
42.0
 40
42.0
 40
42.0
 40
43.0
 40
43.0
 40
43.0
 40
43.0
 10
0.4097333630990446
 20
-32.31246460469481
 30
0.0
 10
0.4361451972772317
 20
-31.54089785432373
 30
0.0
 10
0.5999347140878322
 20
-30.80335021591472
 30
0.0
 10
0.781068330884661
 20
-30.05649778236755
 30
0.0
  0
SPLINE
  5
BE
330
77
100
AcDbEntity
  8
0
  6
Continuous
 62
     7
370
    18
100
AcDbSpline
210
0.0
220
0.0
230
1.0
 70
     8
 71
     2
 72
     6
 73
     3
 74
     0
 42
0.00000001
 43
0.00000001
 40
43.0
 40
43.0
 40
43.0
 40
44.0
 40
44.0
 40
44.0
 10
0.7810683308846645
 20
-30.05649778236755
 30
0.0
 10
2.019861532240659
 20
-29.56825285869967
 30
0.0
 10
2.258068961108365
 20
-29.47606436460191
 30
0.0
  0
SPLINE
  5
BF
330
77
100
AcDbEntity
  8
0
  6
Continuous
 62
     7
370
    18
100
AcDbSpline
210
0.0
220
0.0
230
1.0
 70
     8
 71
     3
 72
     8
 73
     4
 74
     0
 42
0.00000001
 43
0.00000001
 40
44.0
 40
44.0
 40
44.0
 40
44.0
 40
45.0
 40
45.0
 40
45.0
 40
45.0
 10
2.258068961108342
 20
-29.47606436460192
 30
0.0
 10
3.006698264126698
 20
-29.1863189469019
 30
0.0
 10
3.728021454602016
 20
-28.82750567245856
 30
0.0
 10
4.423057775498144
 20
-28.42657886572963
 30
0.0
  0
SPLINE
  5
C0
330
77
100
AcDbEntity
  8
0
  6
Continuous
 62
     7
370
    18
100
AcDbSpline
210
0.0
220
0.0
230
1.0
 70
     8
 71
     3
 72
     8
 73
     4
 74
     0
 42
0.00000001
 43
0.00000001
 40
45.0
 40
45.0
 40
45.0
 40
45.0
 40
46.0
 40
46.0
 40
46.0
 40
46.0
 10
4.423057775498167
 20
-28.42657886572961
 30
0.0
 10
4.868536225754158
 20
-28.16961728043866
 30
0.0
 10
5.301864108552885
 20
-27.8924103198887
 30
0.0
 10
5.741401688969919
 20
-27.62554000024407
 30
0.0
  0
SPLINE
  5
C1
330
77
100
AcDbEntity
  8
0
  6
Continuous
 62
     7
370
    18
100
AcDbSpline
210
0.0
220
0.0
230
1.0
 70
     8
 71
     3
 72
     8
 73
     4
 74
     0
 42
0.00000001
 43
0.00000001
 40
46.0
 40
46.0
 40
46.0
 40
46.0
 40
47.0
 40
47.0
 40
47.0
 40
47.0
 10
5.741401688969916
 20
-27.62554000024407
 30
0.0
 10
5.846716220532924
 20
-27.83071994248106
 30
0.0
 10
5.91709395351037
 20
-28.10115880837991
 30
0.0
 10
5.852221678941643
 20
-28.42763672804736
 30
0.0
  0
SPLINE
  5
C2
330
77
100
AcDbEntity
  8
0
  6
Continuous
 62
     7
370
    18
100
AcDbSpline
210
0.0
220
0.0
230
1.0
 70
     8
 71
     3
 72
     8
 73
     4
 74
     0
 42
0.00000001
 43
0.00000001
 40
47.0
 40
47.0
 40
47.0
 40
47.0
 40
48.0
 40
48.0
 40
48.0
 40
48.0
 10
5.852221678941643
 20
-28.42763672804736
 30
0.0
 10
5.825697879445541
 20
-28.53478547887384
 30
0.0
 10
5.788744133302801
 20
-28.64641216137642
 30
0.0
 10
5.745232449477395
 20
-28.75809491089348
 30
0.0
  0
SPLINE
  5
C3
330
77
100
AcDbEntity
  8
0
  6
Continuous
 62
     7
370
    18
100
AcDbSpline
210
0.0
220
0.0
230
1.0
 70
     8
 71
     2
 72
     6
 73
     3
 74
     0
 42
0.00000001
 43
0.00000001
 40
48.0
 40
48.0
 40
48.0
 40
49.0
 40
49.0
 40
49.0
 10
5.745232449477399
 20
-28.75809491089347
 30
0.0
 10
5.531726678391706
 20
-29.30640322476907
 30
0.0
 10
5.166798660391799
 20
-29.85361491693775
 30
0.0
  0
SPLINE
  5
C4
330
77
100
AcDbEntity
  8
0
  6
Continuous
 62
     7
370
    18
100
AcDbSpline
210
0.0
220
0.0
230
1.0
 70
     8
 71
     3
 72
     8
 73
     4
 74
     0
 42
0.00000001
 43
0.00000001
 40
49.0
 40
49.0
 40
49.0
 40
49.0
 40
50.0
 40
50.0
 40
50.0
 40
50.0
 10
5.166798660391799
 20
-29.85361491693775
 30
0.0
 10
6.311748821301538
 20
-30.87442349267374
 30
0.0
 10
9.719833011058038
 20
-30.34731936373517
 30
0.0
 10
10.01547529282146
 20
-30.40047363722643
 30
0.0
  0
SPLINE
  5
C5
330
77
100
AcDbEntity
  8
0
  6
Continuous
 62
     7
370
    18
100
AcDbSpline
210
0.0
220
0.0
230
1.0
 70
     8
 71
     3
 72
     8
 73
     4
 74
     0
 42
0.00000001
 43
0.00000001
 40
51.0
 40
51.0
 40
51.0
 40
51.0
 40
52.0
 40
52.0
 40
52.0
 40
52.0
 10
9.153997704124192
 20
-32.09537737749855
 30
0.0
 10
9.13746533104106
 20
-32.12795874790397
 30
0.0
 10
9.15043432665133
 20
-32.16778204466993
 30
0.0
 10
9.183008121878673
 20
-32.18434759557922
 30
0.0
  0
SPLINE
  5
C6
330
77
100
AcDbEntity
  8
0
  6
Continuous
 62
     7
370
    18
100
AcDbSpline
210
0.0
220
0.0
230
1.0
 70
     8
 71
     3
 72
     8
 73
     4
 74
     0
 42
0.00000001
 43
0.00000001
 40
53.0
 40
53.0
 40
53.0
 40
53.0
 40
54.0
 40
54.0
 40
54.0
 40
54.0
 10
9.481427995968861
 20
-32.33610365259894
 30
0.0
 10
9.51400179119618
 20
-32.35266920350812
 30
0.0
 10
9.553865840967733
 20
-32.33967460525203
 30
0.0
 10
9.570438967056274
 20
-32.30706763220036
 30
0.0
  0
SPLINE
  5
C7
330
77
100
AcDbEntity
  8
0
  6
Continuous
 62
     7
370
    18
100
AcDbSpline
210
0.0
220
0.0
230
1.0
 70
     8
 71
     3
 72
     8
 73
     4
 74
     0
 42
0.00000001
 43
0.00000001
 40
55.0
 40
55.0
 40
55.0
 40
55.0
 40
56.0
 40
56.0
 40
56.0
 40
56.0
 10
10.49927251692245
 20
-30.47944802269659
 30
0.0
 10
10.51193120516501
 20
-30.46811349836248
 30
0.0
 10
10.52226333020525
 20
-30.4588658263786
 30
0.0
 10
10.53488126544412
 20
-30.44755690468914
 30
0.0
  0
SPLINE
  5
C8
330
77
100
AcDbEntity
  8
0
  6
Continuous
 62
     7
370
    18
100
AcDbSpline
210
0.0
220
0.0
230
1.0
 70
     8
 71
     3
 72
     8
 73
     4
 74
     0
 42
0.00000001
 43
0.00000001
 40
56.0
 40
56.0
 40
56.0
 40
56.0
 40
57.0
 40
57.0
 40
57.0
 40
57.0
 10
10.53488126544413
 20
-30.44755690468914
 30
0.0
 10
10.94397733100252
 20
-30.30331240881152
 30
0.0
 10
11.82966874715053
 20
-29.98429676100319
 30
0.0
 10
12.53432218047716
 20
-29.45754287024319
 30
0.0
  0
SPLINE
  5
C9
330
77
100
AcDbEntity
  8
0
  6
Continuous
 62
     7
370
    18
100
AcDbSpline
210
0.0
220
0.0
230
1.0
 70
     8
 71
     3
 72
     8
 73
     4
 74
     0
 42
0.00000001
 43
0.00000001
 40
57.0
 40
57.0
 40
57.0
 40
57.0
 40
58.0
 40
58.0
 40
58.0
 40
58.0
 10
12.53432218047716
 20
-29.45754287024319
 30
0.0
 10
12.5642240877841
 20
-29.43520496265615
 30
0.0
 10
12.56963855743016
 20
-29.39207389927418
 30
0.0
 10
12.54678888824712
 20
-29.36257875718611
 30
0.0
  0
SPLINE
  5
CA
330
77
100
AcDbEntity
  8
0
  6
Continuous
 62
     7
370
    18
100
AcDbSpline
210
0.0
220
0.0
230
1.0
 70
     8
 71
     3
 72
     8
 73
     4
 74
     0
 42
0.00000001
 43
0.00000001
 40
59.0
 40
59.0
 40
59.0
 40
59.0
 40
60.0
 40
60.0
 40
60.0
 40
60.0
 10
12.34190888882302
 20
-29.09789103127773
 30
0.0
 10
12.31997516065779
 20
-29.06958242439806
 30
0.0
 10
12.28012241966975
 20
-29.06441030595369
 30
0.0
 10
12.25140704757306
 20
-29.08583227252173
 30
0.0
  0
SPLINE
  5
CB
330
77
100
AcDbEntity
  8
0
  6
Continuous
 62
     7
370
    18
100
AcDbSpline
210
0.0
220
0.0
230
1.0
 70
     8
 71
     3
 72
     8
 73
     4
 74
     0
 42
0.00000001
 43
0.00000001
 40
60.0
 40
60.0
 40
60.0
 40
60.0
 40
61.0
 40
61.0
 40
61.0
 40
61.0
 10
12.25140704757306
 20
-29.08583227252173
 30
0.0
 10
11.61813304861152
 20
-29.55810881407591
 30
0.0
 10
10.80862034190002
 20
-29.85498500376039
 30
0.0
 10
10.41032416844674
 20
-29.99588325594667
 30
0.0
  0
SPLINE
  5
CC
330
77
100
AcDbEntity
  8
0
  6
Continuous
 62
     7
370
    18
100
AcDbSpline
210
0.0
220
0.0
230
1.0
 70
     8
 71
     3
 72
     8
 73
     4
 74
     0
 42
0.00000001
 43
0.00000001
 40
61.0
 40
61.0
 40
61.0
 40
61.0
 40
62.0
 40
62.0
 40
62.0
 40
62.0
 10
10.41032416844674
 20
-29.99588325594667
 30
0.0
 10
10.11835353580004
 20
-29.93880243613075
 30
0.0
 10
9.785406052735285
 20
-29.78148435767264
 30
0.0
 10
9.416902124193346
 20
-29.50966772742371
 30
0.0
  0
SPLINE
  5
CD
330
77
100
AcDbEntity
  8
0
  6
Continuous
 62
     7
370
    18
100
AcDbSpline
210
0.0
220
0.0
230
1.0
 70
     8
 71
     3
 72
     8
 73
     4
 74
     0
 42
0.00000001
 43
0.00000001
 40
62.0
 40
62.0
 40
62.0
 40
62.0
 40
63.0
 40
63.0
 40
63.0
 40
63.0
 10
9.416902124193346
 20
-29.50966772742371
 30
0.0
 10
9.407944475865712
 20
-29.50119955155471
 30
0.0
 10
9.394588799105467
 20
-29.49143050250025
 30
0.0
 10
9.376572020348016
 20
-29.48021324667389
 30
0.0
  0
SPLINE
  5
CE
330
77
100
AcDbEntity
  8
0
  6
Continuous
 62
     7
370
    18
100
AcDbSpline
210
0.0
220
0.0
230
1.0
 70
     8
 71
     3
 72
     8
 73
     4
 74
     0
 42
0.00000001
 43
0.00000001
 40
63.0
 40
63.0
 40
63.0
 40
63.0
 40
64.0
 40
64.0
 40
64.0
 40
64.0
 10
9.376572020348016
 20
-29.48021324667389
 30
0.0
 10
9.145324806072944
 20
-29.30555303878837
 30
0.0
 10
8.900259957859191
 20
-29.0859189225671
 30
0.0
 10
8.642485564221985
 20
-28.81737501008692
 30
0.0
  0
SPLINE
  5
CF
330
77
100
AcDbEntity
  8
0
  6
Continuous
 62
     7
370
    18
100
AcDbSpline
210
0.0
220
0.0
230
1.0
 70
     8
 71
     2
 72
     6
 73
     3
 74
     0
 42
0.00000001
 43
0.00000001
 40
64.0
 40
64.0
 40
64.0
 40
65.0
 40
65.0
 40
65.0
 10
8.642485564221984
 20
-28.81737501008692
 30
0.0
 10
8.62781779716172
 20
-28.81266466885932
 30
0.0
 10
8.605249246441485
 20
-28.80533009248483
 30
0.0
  0
SPLINE
  5
D0
330
77
100
AcDbEntity
  8
0
  6
Continuous
 62
     7
370
    18
100
AcDbSpline
210
0.0
220
0.0
230
1.0
 70
     8
 71
     3
 72
     8
 73
     4
 74
     0
 42
0.00000001
 43
0.00000001
 40
65.0
 40
65.0
 40
65.0
 40
65.0
 40
66.0
 40
66.0
 40
66.0
 40
66.0
 10
8.605249246441483
 20
-28.80533009248483
 30
0.0
 10
8.441756705356795
 20
-28.62769111192185
 30
0.0
 10
8.288445022476992
 20
-28.44047320919115
 30
0.0
 10
8.160507965772787
 20
-28.26397079802058
 30
0.0
  0
SPLINE
  5
D1
330
77
100
AcDbEntity
  8
0
  6
Continuous
 62
     7
370
    18
100
AcDbSpline
210
0.0
220
0.0
230
1.0
 70
     8
 71
     3
 72
     8
 73
     4
 74
     0
 42
0.00000001
 43
0.00000001
 40
66.0
 40
66.0
 40
66.0
 40
66.0
 40
67.0
 40
67.0
 40
67.0
 40
67.0
 10
8.160507965772789
 20
-28.26397079802058
 30
0.0
 10
8.607151503975404
 20
-28.41906030303154
 30
0.0
 10
9.19232914263821
 20
-28.57237361567124
 30
0.0
 10
9.863974170124614
 20
-28.62737240380984
 30
0.0
  0
SPLINE
  5
D2
330
77
100
AcDbEntity
  8
0
  6
Continuous
 62
     7
370
    18
100
AcDbSpline
210
0.0
220
0.0
230
1.0
 70
     8
 71
     3
 72
     8
 73
     4
 74
     0
 42
0.00000001
 43
0.00000001
 40
67.0
 40
67.0
 40
67.0
 40
67.0
 40
68.0
 40
68.0
 40
68.0
 40
68.0
 10
9.863974170124614
 20
-28.62737240380984
 30
0.0
 10
9.929750373961975
 20
-28.63137718087538
 30
0.0
 10
9.995567330801844
 20
-28.63535635529414
 30
0.0
 10
10.05958246956674
 20
-28.63782455467626
 30
0.0
  0
SPLINE
  5
D3
330
77
100
AcDbEntity
  8
0
  6
Continuous
 62
     7
370
    18
100
AcDbSpline
210
0.0
220
0.0
230
1.0
 70
     8
 71
     3
 72
     8
 73
     4
 74
     0
 42
0.00000001
 43
0.00000001
 40
68.0
 40
68.0
 40
68.0
 40
68.0
 40
69.0
 40
69.0
 40
69.0
 40
69.0
 10
10.05958246956674
 20
-28.63782455467626
 30
0.0
 10
10.11127119041664
 20
-28.63985208217537
 30
0.0
 10
10.16294064545186
 20
-28.64456308025562
 30
0.0
 10
10.21460035848199
 20
-28.64618254964
 30
0.0
  0
SPLINE
  5
D4
330
77
100
AcDbEntity
  8
0
  6
Continuous
 62
     7
370
    18
100
AcDbSpline
210
0.0
220
0.0
230
1.0
 70
     8
 71
     3
 72
     8
 73
     4
 74
     0
 42
0.00000001
 43
0.00000001
 40
69.0
 40
69.0
 40
69.0
 40
69.0
 40
70.0
 40
70.0
 40
70.0
 40
70.0
 10
10.21460035848199
 20
-28.64618254964
 30
0.0
 10
10.21915118340657
 20
-28.64627909690886
 30
0.0
 10
10.22372526194017
 20
-28.64650312933368
 30
0.0
 10
10.22972170784432
 20
-28.64302011343959
 30
0.0
  0
SPLINE
  5
D5
330
77
100
AcDbEntity
  8
0
  6
Continuous
 62
     7
370
    18
100
AcDbSpline
210
0.0
220
0.0
230
1.0
 70
     8
 71
     3
 72
     8
 73
     4
 74
     0
 42
0.00000001
 43
0.00000001
 40
70.0
 40
70.0
 40
70.0
 40
70.0
 40
71.0
 40
71.0
 40
71.0
 40
71.0
 10
10.22972170784433
 20
-28.64302011343959
 30
0.0
 10
10.39542110854619
 20
-28.64648636439826
 30
0.0
 10
10.55222592049436
 20
-28.64556554872323
 30
0.0
 10
10.69525541603271
 20
-28.64198824855314
 30
0.0
  0
SPLINE
  5
D6
330
77
100
AcDbEntity
  8
0
  6
Continuous
 62
     7
370
    18
100
AcDbSpline
210
0.0
220
0.0
230
1.0
 70
     8
 71
     3
 72
     8
 73
     4
 74
     0
 42
0.00000001
 43
0.00000001
 40
71.0
 40
71.0
 40
71.0
 40
71.0
 40
72.0
 40
72.0
 40
72.0
 40
72.0
 10
10.6952554160327
 20
-28.64198824855314
 30
0.0
 10
10.93874918772079
 20
-28.62923420583628
 30
0.0
 10
12.86255814414376
 20
-28.44580125262167
 30
0.0
 10
13.43053046157378
 20
-28.5046888169102
 30
0.0
  0
SPLINE
  5
D7
330
77
100
AcDbEntity
  8
0
  6
Continuous
 62
     7
370
    18
100
AcDbSpline
210
0.0
220
0.0
230
1.0
 70
     8
 71
     3
 72
     8
 73
     4
 74
     0
 42
0.00000001
 43
0.00000001
 40
72.0
 40
72.0
 40
72.0
 40
72.0
 40
73.0
 40
73.0
 40
73.0
 40
73.0
 10
13.43053046157378
 20
-28.5046888169102
 30
0.0
 10
12.97694821790165
 20
-29.54354095615899
 30
0.0
 10
12.80375507038257
 20
-30.61054434437692
 30
0.0
 10
12.76467963112437
 20
-30.88580371497291
 30
0.0
  0
SPLINE
  5
D8
330
77
100
AcDbEntity
  8
0
  6
Continuous
 62
     7
370
    18
100
AcDbSpline
210
0.0
220
0.0
230
1.0
 70
     8
 71
     3
 72
     8
 73
     4
 74
     0
 42
0.00000001
 43
0.00000001
 40
73.0
 40
73.0
 40
73.0
 40
73.0
 40
74.0
 40
74.0
 40
74.0
 40
74.0
 10
12.76467963112437
 20
-30.88580371497291
 30
0.0
 10
12.75946694188426
 20
-30.92247061993447
 30
0.0
 10
12.78562558003658
 20
-30.95551385922744
 30
0.0
 10
12.8223724068011
 20
-30.95999428728276
 30
0.0
  0
SPLINE
  5
D9
330
77
100
AcDbEntity
  8
0
  6
Continuous
 62
     7
370
    18
100
AcDbSpline
210
0.0
220
0.0
230
1.0
 70
     8
 71
     3
 72
     8
 73
     4
 74
     0
 42
0.00000001
 43
0.00000001
 40
75.0
 40
75.0
 40
75.0
 40
75.0
 40
76.0
 40
76.0
 40
76.0
 40
76.0
 10
13.27084661062346
 20
-31.0149510216448
 30
0.0
 10
13.30643509061805
 20
-31.01930660488938
 30
0.0
 10
13.33913039971426
 20
-30.99490116531647
 30
0.0
 10
13.34433815412196
 20
-30.95940253133898
 30
0.0
  0
SPLINE
  5
DA
330
77
100
AcDbEntity
  8
0
  6
Continuous
 62
     7
370
    18
100
AcDbSpline
210
0.0
220
0.0
230
1.0
 70
     8
 71
     3
 72
     8
 73
     4
 74
     0
 42
0.00000001
 43
0.00000001
 40
76.0
 40
76.0
 40
76.0
 40
76.0
 40
77.0
 40
77.0
 40
77.0
 40
77.0
 10
13.34433815412196
 20
-30.95940253133898
 30
0.0
 10
13.3839863568229
 20
-30.68912606222256
 30
0.0
 10
13.56408992520232
 20
-29.60362871347513
 30
0.0
 10
14.02078503742013
 20
-28.61451474141115
 30
0.0
  0
SPLINE
  5
DB
330
77
100
AcDbEntity
  8
0
  6
Continuous
 62
     7
370
    18
100
AcDbSpline
210
0.0
220
0.0
230
1.0
 70
     8
 71
     3
 72
     8
 73
     4
 74
     0
 42
0.00000001
 43
0.00000001
 40
77.0
 40
77.0
 40
77.0
 40
77.0
 40
78.0
 40
78.0
 40
78.0
 40
78.0
 10
14.02078503742013
 20
-28.61451474141115
 30
0.0
 10
14.03051784933197
 20
-28.60422264166403
 30
0.0
 10
14.03832693001586
 20
-28.5959348321164
 30
0.0
 10
14.04805974192876
 20
-28.58564273237117
 30
0.0
  0
SPLINE
  5
DC
330
77
100
AcDbEntity
  8
0
  6
Continuous
 62
     7
370
    18
100
AcDbSpline
210
0.0
220
0.0
230
1.0
 70
     8
 71
     3
 72
     8
 73
     4
 74
     0
 42
0.00000001
 43
0.00000001
 40
78.0
 40
78.0
 40
78.0
 40
78.0
 40
79.0
 40
79.0
 40
79.0
 40
79.0
 10
14.04805974192877
 20
-28.58564273237117
 30
0.0
 10
14.36946299190545
 20
-28.42521597674384
 30
0.0
 10
15.82365074121367
 20
-27.67538698008446
 30
0.0
 10
17.12167999380672
 20
-27.35127481772455
 30
0.0
  0
SPLINE
  5
DD
330
77
100
AcDbEntity
  8
0
  6
Continuous
 62
     7
370
    18
100
AcDbSpline
210
0.0
220
0.0
230
1.0
 70
     8
 71
     3
 72
     8
 73
     4
 74
     0
 42
0.00000001
 43
0.00000001
 40
79.0
 40
79.0
 40
79.0
 40
79.0
 40
80.0
 40
80.0
 40
80.0
 40
80.0
 10
17.1216799938067
 20
-27.35127481772455
 30
0.0
 10
17.15690371849272
 20
-27.34247430066912
 30
0.0
 10
17.17784082126059
 20
-27.30749514968448
 30
0.0
 10
17.16924929537078
 20
-27.27219696609878
 30
0.0
  0
SPLINE
  5
DE
330
77
100
AcDbEntity
  8
0
  6
Continuous
 62
     7
370
    18
100
AcDbSpline
210
0.0
220
0.0
230
1.0
 70
     8
 71
     3
 72
     8
 73
     4
 74
     0
 42
0.00000001
 43
0.00000001
 40
81.0
 40
81.0
 40
81.0
 40
81.0
 40
82.0
 40
82.0
 40
82.0
 40
82.0
 10
17.06226621153357
 20
-26.8332975819211
 30
0.0
 10
17.05353856916747
 20
-26.79760179250334
 30
0.0
 10
17.01793344627307
 20
-26.77512547170584
 30
0.0
 10
16.98226613660748
 20
-26.78403415355417
 30
0.0
  0
SPLINE
  5
DF
330
77
100
AcDbEntity
  8
0
  6
Continuous
 62
     7
370
    18
100
AcDbSpline
210
0.0
220
0.0
230
1.0
 70
     8
 71
     3
 72
     8
 73
     4
 74
     0
 42
0.00000001
 43
0.00000001
 40
82.0
 40
82.0
 40
82.0
 40
82.0
 40
83.0
 40
83.0
 40
83.0
 40
83.0
 10
16.98226613660748
 20
-26.78403415355417
 30
0.0
 10
15.80703100274552
 20
-27.07715433462484
 30
0.0
 10
14.44247136659616
 20
-27.74853717091202
 30
0.0
 10
13.97401618096952
 20
-27.97182062237161
 30
0.0
  0
SPLINE
  5
E0
330
77
100
AcDbEntity
  8
0
  6
Continuous
 62
     7
370
    18
100
AcDbSpline
210
0.0
220
0.0
230
1.0
 70
     8
 71
     2
 72
     6
 73
     3
 74
     0
 42
0.00000001
 43
0.00000001
 40
83.0
 40
83.0
 40
83.0
 40
84.0
 40
84.0
 40
84.0
 10
13.97401618096952
 20
-27.97182062237161
 30
0.0
 10
13.76115166284069
 20
-28.0306975586193
 30
0.0
 10
13.62827019587519
 20
-28.06884456933804
 30
0.0
  0
SPLINE
  5
E1
330
77
100
AcDbEntity
  8
0
  6
Continuous
 62
     7
370
    18
100
AcDbSpline
210
0.0
220
0.0
230
1.0
 70
     8
 71
     2
 72
     6
 73
     3
 74
     0
 42
0.00000001
 43
0.00000001
 40
84.0
 40
84.0
 40
84.0
 40
85.0
 40
85.0
 40
85.0
 10
13.62827019587519
 20
-28.06884456933805
 30
0.0
 10
11.5526032886585
 20
-27.70008456573036
 30
0.0
 10
8.975295544280778
 20
-24.55390683673479
 30
0.0
  0
SPLINE
  5
E2
330
77
100
AcDbEntity
  8
0
  6
Continuous
 62
     7
370
    18
100
AcDbSpline
210
0.0
220
0.0
230
1.0
 70
     8
 71
     2
 72
     6
 73
     3
 74
     0
 42
0.00000001
 43
0.00000001
 40
8.0
 40
8.0
 40
8.0
 40
9.0
 40
9.0
 40
9.0
 10
1.034248725372328
 20
-24.04306676583063
 30
0.0
 10
0.5031359822839347
 20
-24.67424914238567
 30
0.0
 10
0.2366362148993398
 20
-25.09912070303729
 30
0.0
  0
SPLINE
  5
E3
330
77
100
AcDbEntity
  8
0
  6
Continuous
 62
     7
370
    18
100
AcDbSpline
210
0.0
220
0.0
230
1.0
 70
     8
 71
     3
 72
     8
 73
     4
 74
     0
 42
0.00000001
 43
0.00000001
 40
86.0
 40
86.0
 40
86.0
 40
86.0
 40
87.0
 40
87.0
 40
87.0
 40
87.0
 10
10.62007177823641
 20
-22.03794594188311
 30
0.0
 10
11.72219760878135
 20
-21.28087378904547
 30
0.0
 10
12.92971041173824
 20
-21.7396330529282
 30
0.0
 10
13.12249700197277
 20
-22.04761177879816
 30
0.0
  0
SPLINE
  5
E4
330
77
100
AcDbEntity
  8
0
  6
Continuous
 62
     7
370
    18
100
AcDbSpline
210
0.0
220
0.0
230
1.0
 70
     8
 71
     3
 72
     8
 73
     4
 74
     0
 42
0.00000001
 43
0.00000001
 40
87.0
 40
87.0
 40
87.0
 40
87.0
 40
88.0
 40
88.0
 40
88.0
 40
88.0
 10
13.12249700197277
 20
-22.04761177879816
 30
0.0
 10
13.26108412081468
 20
-22.26820779325175
 30
0.0
 10
13.22069296788121
 20
-22.53929203859532
 30
0.0
 10
13.16248097184179
 20
-22.77811969809535
 30
0.0
  0
SPLINE
  5
E5
330
77
100
AcDbEntity
  8
0
  6
Continuous
 62
     7
370
    18
100
AcDbSpline
210
0.0
220
0.0
230
1.0
 70
     8
 71
     3
 72
     8
 73
     4
 74
     0
 42
0.00000001
 43
0.00000001
 40
1.0
 40
1.0
 40
1.0
 40
1.0
 40
2.0
 40
2.0
 40
2.0
 40
2.0
 10
-12.97698727481876
 20
-11.94438967842669
 30
0.0
 10
-12.93408822057713
 20
-11.98055695107731
 30
0.0
 10
-12.89117871404966
 20
-12.0168313323847
 30
0.0
 10
-12.84833062834044
 20
-12.05192229234568
 30
0.0
  0
SPLINE
  5
E6
330
77
100
AcDbEntity
  8
0
  6
Continuous
 62
     7
370
    18
100
AcDbSpline
210
0.0
220
0.0
230
1.0
 70
     8
 71
     3
 72
     8
 73
     4
 74
     0
 42
0.00000001
 43
0.00000001
 40
0.0
 40
0.0
 40
0.0
 40
0.0
 40
1.0
 40
1.0
 40
1.0
 40
1.0
 10
-12.84833062834044
 20
-12.05192229234568
 30
0.0
 10
-12.89117977018919
 20
-12.01637729512133
 30
0.0
 10
-12.93406966504302
 20
-11.98085790053987
 30
0.0
 10
-12.97698727481876
 20
-11.94438967842669
 30
0.0
  0
SPLINE
  5
E7
330
77
100
AcDbEntity
  8
0
  6
Continuous
 62
     7
370
    18
100
AcDbSpline
210
0.0
220
0.0
230
1.0
 70
     8
 71
     3
 72
     8
 73
     4
 74
     0
 42
0.00000001
 43
0.00000001
 40
1.0
 40
1.0
 40
1.0
 40
1.0
 40
2.0
 40
2.0
 40
2.0
 40
2.0
 10
-13.12585089146288
 20
-11.81726812552848
 30
0.0
 10
-13.07617793437105
 20
-11.86068937846771
 30
0.0
 10
-13.02665471445727
 20
-11.90224380512823
 30
0.0
 10
-12.97698727481876
 20
-11.94438967842669
 30
0.0
  0
SPLINE
  5
E8
330
77
100
AcDbEntity
  8
0
  6
Continuous
 62
     7
370
    18
100
AcDbSpline
210
0.0
220
0.0
230
1.0
 70
     8
 71
     3
 72
     8
 73
     4
 74
     0
 42
0.00000001
 43
0.00000001
 40
0.0
 40
0.0
 40
0.0
 40
0.0
 40
1.0
 40
1.0
 40
1.0
 40
1.0
 10
-12.97698727481876
 20
-11.94438967842669
 30
0.0
 10
-13.02658495363045
 20
-11.90262626059936
 30
0.0
 10
-13.07617323629799
 20
-11.86051591416215
 30
0.0
 10
-13.12585089146288
 20
-11.81726812552848
 30
0.0
  0
SPLINE
  5
E9
330
77
100
AcDbEntity
  8
0
  6
Continuous
 62
     7
370
    18
100
AcDbSpline
210
0.0
220
0.0
230
1.0
 70
     8
 71
     3
 72
     8
 73
     4
 74
     0
 42
0.00000001
 43
0.00000001
 40
1.0
 40
1.0
 40
1.0
 40
1.0
 40
2.0
 40
2.0
 40
2.0
 40
2.0
 10
-13.4714083645441
 20
-11.50579973387192
 30
0.0
 10
-13.35607265135197
 20
-11.61411326446534
 30
0.0
 10
-13.24089747348539
 20
-11.71701440282046
 30
0.0
 10
-13.12585089146288
 20
-11.81726812552848
 30
0.0
  0
SPLINE
  5
EA
330
77
100
AcDbEntity
  8
0
  6
Continuous
 62
     7
370
    18
100
AcDbSpline
210
0.0
220
0.0
230
1.0
 70
     8
 71
     3
 72
     8
 73
     4
 74
     0
 42
0.00000001
 43
0.00000001
 40
0.0
 40
0.0
 40
0.0
 40
0.0
 40
1.0
 40
1.0
 40
1.0
 40
1.0
 10
-13.12585089146288
 20
-11.81726812552848
 30
0.0
 10
-13.24099048791926
 20
-11.71650446219232
 30
0.0
 10
-13.35623202143728
 20
-11.61358817347745
 30
0.0
 10
-13.4714083645441
 20
-11.50579973387192
 30
0.0
  0
SPLINE
  5
EB
330
77
100
AcDbEntity
  8
0
  6
Continuous
 62
     7
370
    18
100
AcDbSpline
210
0.0
220
0.0
230
1.0
 70
     8
 71
     3
 72
     8
 73
     4
 74
     0
 42
0.00000001
 43
0.00000001
 40
0.0
 40
0.0
 40
0.0
 40
0.0
 40
1.0
 40
1.0
 40
1.0
 40
1.0
 10
10.21461546345718
 20
-28.64617788443965
 30
0.0
 10
10.21918410196907
 20
-28.64627093080314
 30
0.0
 10
10.22372101727702
 20
-28.64652141251756
 30
0.0
 10
10.22970805870399
 20
-28.64302825278814
 30
0.0
  0
SPLINE
  5
EC
330
77
100
AcDbEntity
  8
0
  6
Continuous
 62
     7
370
    18
100
AcDbSpline
210
0.0
220
0.0
230
1.0
 70
     8
 71
     3
 72
     8
 73
     4
 74
     0
 42
0.00000001
 43
0.00000001
 40
1.0
 40
1.0
 40
1.0
 40
1.0
 40
2.0
 40
2.0
 40
2.0
 40
2.0
 10
10.22970805870399
 20
-28.64302825278814
 30
0.0
 10
10.39542645279408
 20
-28.64648116215303
 30
0.0
 10
10.55224712619552
 20
-28.64555481591909
 30
0.0
 10
10.69524471404092
 20
-28.64199596788804
 30
0.0
  0
SPLINE
  5
ED
330
77
100
AcDbEntity
  8
0
  6
Continuous
 62
     7
370
    18
100
AcDbSpline
210
0.0
220
0.0
230
1.0
 70
     8
 71
     3
 72
     8
 73
     4
 74
     0
 42
0.00000001
 43
0.00000001
 40
2.0
 40
2.0
 40
2.0
 40
2.0
 40
3.0
 40
3.0
 40
3.0
 40
3.0
 10
10.69524471404092
 20
-28.64199596788804
 30
0.0
 10
10.93878108149031
 20
-28.62922500765117
 30
0.0
 10
12.86256786793131
 20
-28.44579912729742
 30
0.0
 10
13.43053447184528
 20
-28.50468697828905
 30
0.0
  0
SPLINE
  5
EE
330
77
100
AcDbEntity
  8
0
  6
Continuous
 62
     7
370
    18
100
AcDbSpline
210
0.0
220
0.0
230
1.0
 70
     8
 71
     3
 72
     8
 73
     4
 74
     0
 42
0.00000001
 43
0.00000001
 40
3.0
 40
3.0
 40
3.0
 40
3.0
 40
4.0
 40
4.0
 40
4.0
 40
4.0
 10
13.43053447184528
 20
-28.50468697828905
 30
0.0
 10
11.96260748192116
 20
-28.37392053115179
 30
0.0
 10
10.1633950095022
 20
-27.12274869564028
 30
0.0
 10
9.151098102011504
 20
-26.42677276430952
 30
0.0
  0
SPLINE
  5
EF
330
77
100
AcDbEntity
  8
0
  6
Continuous
 62
     7
370
    18
100
AcDbSpline
210
0.0
220
0.0
230
1.0
 70
     8
 71
     3
 72
     8
 73
     4
 74
     0
 42
0.00000001
 43
0.00000001
 40
4.0
 40
4.0
 40
4.0
 40
4.0
 40
5.0
 40
5.0
 40
5.0
 40
5.0
 10
9.151098102011504
 20
-26.42677276430952
 30
0.0
 10
9.066774001144022
 20
-26.36879812840622
 30
0.0
 10
8.956675902463358
 20
-26.36572633462992
 30
0.0
 10
8.868930887547672
 20
-26.41838015454434
 30
0.0
  0
SPLINE
  5
F0
330
77
100
AcDbEntity
  8
0
  6
Continuous
 62
     7
370
    18
100
AcDbSpline
210
0.0
220
0.0
230
1.0
 70
     8
 71
     3
 72
     8
 73
     4
 74
     0
 42
0.00000001
 43
0.00000001
 40
5.0
 40
5.0
 40
5.0
 40
5.0
 40
6.0
 40
6.0
 40
6.0
 40
6.0
 10
8.868930887547672
 20
-26.41838015454434
 30
0.0
 10
8.137245193614708
 20
-26.85744836598368
 30
0.0
 10
6.503485492791613
 20
-27.54121410964402
 30
0.0
 10
5.741387155997157
 20
-27.6255445902606
 30
0.0
  0
SPLINE
  5
F1
330
77
100
AcDbEntity
  8
0
  6
Continuous
 62
     7
370
    18
100
AcDbSpline
210
0.0
220
0.0
230
1.0
 70
     8
 71
     2
 72
     6
 73
     3
 74
     0
 42
0.00000001
 43
0.00000001
 40
6.0
 40
6.0
 40
6.0
 40
7.0
 40
7.0
 40
7.0
 10
5.741387155997161
 20
-27.6255445902606
 30
0.0
 10
6.307502227055851
 20
-27.91539630107968
 30
0.0
 10
8.160512274320864
 20
-28.26397363103973
 30
0.0
  0
SPLINE
  5
F2
330
77
100
AcDbEntity
  8
0
  6
Continuous
 62
     7
370
    18
100
AcDbSpline
210
0.0
220
0.0
230
1.0
 70
     8
 71
     3
 72
     8
 73
     4
 74
     0
 42
0.00000001
 43
0.00000001
 40
7.0
 40
7.0
 40
7.0
 40
7.0
 40
8.0
 40
8.0
 40
8.0
 40
8.0
 10
8.160512274320864
 20
-28.26397363103973
 30
0.0
 10
8.607119606053496
 20
-28.41908372564989
 30
0.0
 10
9.192348948782854
 20
-28.5723594656304
 30
0.0
 10
9.863974461413067
 20
-28.62736281210606
 30
0.0
  0
SPLINE
  5
F3
330
77
100
AcDbEntity
  8
0
  6
Continuous
 62
     7
370
    18
100
AcDbSpline
210
0.0
220
0.0
230
1.0
 70
     8
 71
     3
 72
     8
 73
     4
 74
     0
 42
0.00000001
 43
0.00000001
 40
8.0
 40
8.0
 40
8.0
 40
8.0
 40
9.0
 40
9.0
 40
9.0
 40
9.0
 10
9.863974461413067
 20
-28.62736281210606
 30
0.0
 10
9.929765209251192
 20
-28.63135918423149
 30
0.0
 10
9.995575675609581
 20
-28.63534316840197
 30
0.0
 10
10.05956717050909
 20
-28.63784354557302
 30
0.0
  0
SPLINE
  5
F4
330
77
100
AcDbEntity
  8
0
  6
Continuous
 62
     7
370
    18
100
AcDbSpline
210
0.0
220
0.0
230
1.0
 70
     8
 71
     3
 72
     8
 73
     4
 74
     0
 42
0.00000001
 43
0.00000001
 40
9.0
 40
9.0
 40
9.0
 40
9.0
 40
10.0
 40
10.0
 40
10.0
 40
10.0
 10
10.05956717050909
 20
-28.63784354557302
 30
0.0
 10
10.11125739464263
 20
-28.63984923247316
 30
0.0
 10
10.16293232757963
 20
-28.6445665106095
 30
0.0
 10
10.21461546345718
 20
-28.64617788443965
 30
0.0
  0
SPLINE
  5
F5
330
77
100
AcDbEntity
  8
0
  6
Continuous
 62
     7
370
    18
100
AcDbSpline
210
0.0
220
0.0
230
1.0
 70
     8
 71
     3
 72
     8
 73
     4
 74
     0
 42
0.00000001
 43
0.00000001
 40
2.0
 40
2.0
 40
2.0
 40
2.0
 40
3.0
 40
3.0
 40
3.0
 40
3.0
 10
0.781062732010538
 20
-30.05650200510532
 30
0.0
 10
0.1140626469377116
 20
-30.75512103968738
 30
0.0
 10
-0.1792280526829951
 20
-32.7836717599449
 30
0.0
 10
0.56197195590197
 20
-34.03978273437906
 30
0.0
  0
SPLINE
  5
F6
330
77
100
AcDbEntity
  8
0
  6
Continuous
 62
     7
370
    18
100
AcDbSpline
210
0.0
220
0.0
230
1.0
 70
     8
 71
     3
 72
     8
 73
     4
 74
     0
 42
0.00000001
 43
0.00000001
 40
1.0
 40
1.0
 40
1.0
 40
1.0
 40
2.0
 40
2.0
 40
2.0
 40
2.0
 10
0.4097379340995931
 20
-32.31245563887509
 30
0.0
 10
0.4361424212053228
 20
-31.54090664650138
 30
0.0
 10
0.5999421143876079
 20
-30.80333732452794
 30
0.0
 10
0.781062732010538
 20
-30.05650200510532
 30
0.0
  0
SPLINE
  5
F7
330
77
100
AcDbEntity
  8
0
  6
Continuous
 62
     7
370
    18
100
AcDbSpline
210
0.0
220
0.0
230
1.0
 70
     8
 71
     3
 72
     8
 73
     4
 74
     0
 42
0.00000001
 43
0.00000001
 40
0.0
 40
0.0
 40
0.0
 40
0.0
 40
1.0
 40
1.0
 40
1.0
 40
1.0
 10
0.56197195590197
 20
-34.03978273437906
 30
0.0
 10
0.5009972121190077
 20
-33.45272095850807
 30
0.0
 10
0.3892431137951322
 20
-32.91035567089727
 30
0.0
 10
0.4097379340995931
 20
-32.31245563887509
 30
0.0
  0
SPLINE
  5
F8
330
77
100
AcDbEntity
  8
0
  6
Continuous
 62
     7
370
    18
100
AcDbSpline
210
0.0
220
0.0
230
1.0
 70
     8
 71
     3
 72
     8
 73
     4
 74
     0
 42
0.00000001
 43
0.00000001
 40
0.0
 40
0.0
 40
0.0
 40
0.0
 40
1.0
 40
1.0
 40
1.0
 40
1.0
 10
-13.20041683738652
 20
-13.00201936979761
 30
0.0
 10
-12.32154115485279
 20
-14.45520144446019
 30
0.0
 10
-7.761960537329054
 20
-16.44470317690969
 30
0.0
 10
-5.320322465359877
 20
-16.96155007555379
 30
0.0
  0
SPLINE
  5
F9
330
77
100
AcDbEntity
  8
0
  6
Continuous
 62
     7
370
    18
100
AcDbSpline
210
0.0
220
0.0
230
1.0
 70
     8
 71
     3
 72
     8
 73
     4
 74
     0
 42
0.00000001
 43
0.00000001
 40
1.0
 40
1.0
 40
1.0
 40
1.0
 40
2.0
 40
2.0
 40
2.0
 40
2.0
 10
-5.320322465359877
 20
-16.96155007555379
 30
0.0
 10
-5.809512907815261
 20
-18.73302606223522
 30
0.0
 10
-4.10582967731771
 20
-21.71579823494536
 30
0.0
 10
-3.813304494022616
 20
-22.3920269991983
 30
0.0
  0
SPLINE
  5
FA
330
77
100
AcDbEntity
  8
0
  6
Continuous
 62
     7
370
    18
100
AcDbSpline
210
0.0
220
0.0
230
1.0
 70
     8
 71
     2
 72
     6
 73
     3
 74
     0
 42
0.00000001
 43
0.00000001
 40
2.0
 40
2.0
 40
2.0
 40
3.0
 40
3.0
 40
3.0
 10
-3.813304494022616
 20
-22.3920269991983
 30
0.0
 10
-6.043590765584354
 20
-20.10932636703633
 30
0.0
 10
-6.677555282416556
 20
-17.81074155341886
 30
0.0
  0
SPLINE
  5
FB
330
77
100
AcDbEntity
  8
0
  6
Continuous
 62
     7
370
    18
100
AcDbSpline
210
0.0
220
0.0
230
1.0
 70
     8
 71
     2
 72
     6
 73
     3
 74
     0
 42
0.00000001
 43
0.00000001
 40
3.0
 40
3.0
 40
3.0
 40
4.0
 40
4.0
 40
4.0
 10
-6.677555282416556
 20
-17.81074155341886
 30
0.0
 10
-11.75039520923077
 20
-15.65450427384786
 30
0.0
 10
-13.20041683738652
 20
-13.00201936979761
 30
0.0
  0
SPLINE
  5
FC
330
77
100
AcDbEntity
  8
0
  6
Continuous
 62
     7
370
    18
100
AcDbSpline
210
0.0
220
0.0
230
1.0
 70
     8
 71
     2
 72
     6
 73
     3
 74
     0
 42
0.00000001
 43
0.00000001
 40
1.0
 40
1.0
 40
1.0
 40
2.0
 40
2.0
 40
2.0
 10
-1.349158294773173
 20
-16.43790442263529
 30
0.0
 10
-3.425676913677115
 20
-15.05901031383733
 30
0.0
 10
-4.497614924678368
 20
-14.22616249714356
 30
0.0
  0
SPLINE
  5
FD
330
77
100
AcDbEntity
  8
0
  6
Continuous
 62
     7
370
    18
100
AcDbSpline
210
0.0
220
0.0
230
1.0
 70
     8
 71
     3
 72
     8
 73
     4
 74
     0
 42
0.00000001
 43
0.00000001
 40
2.0
 40
2.0
 40
2.0
 40
2.0
 40
3.0
 40
3.0
 40
3.0
 40
3.0
 10
-4.497614924678368
 20
-14.22616249714356
 30
0.0
 10
-7.183559023213449
 20
-14.35196557735811
 30
0.0
 10
-9.97328197261404
 20
-14.40422605275014
 30
0.0
 10
-12.84833062834044
 20
-12.05192229234568
 30
0.0
  0
SPLINE
  5
FE
330
77
100
AcDbEntity
  8
0
  6
Continuous
 62
     7
370
    18
100
AcDbSpline
210
0.0
220
0.0
230
1.0
 70
     8
 71
     2
 72
     6
 73
     3
 74
     0
 42
0.00000001
 43
0.00000001
 40
3.0
 40
3.0
 40
3.0
 40
4.0
 40
4.0
 40
4.0
 10
-12.84833062834044
 20
-12.05192229234568
 30
0.0
 10
-8.926716496317836
 20
-15.30072905894997
 30
0.0
 10
-5.163233750484998
 20
-14.64433050232701
 30
0.0
  0
SPLINE
  5
FF
330
77
100
AcDbEntity
  8
0
  6
Continuous
 62
     7
370
    18
100
AcDbSpline
210
0.0
220
0.0
230
1.0
 70
     8
 71
     2
 72
     6
 73
     3
 74
     0
 42
0.00000001
 43
0.00000001
 40
4.0
 40
4.0
 40
4.0
 40
5.0
 40
5.0
 40
5.0
 10
-5.163233750484998
 20
-14.64433050232701
 30
0.0
 10
-3.522925431558867
 20
-15.98679375933487
 30
0.0
 10
-2.117352433414995
 20
-16.92051428596087
 30
0.0
  0
SPLINE
  5
100
330
77
100
AcDbEntity
  8
0
  6
Continuous
 62
     7
370
    18
100
AcDbSpline
210
0.0
220
0.0
230
1.0
 70
     8
 71
     3
 72
     8
 73
     4
 74
     0
 42
0.00000001
 43
0.00000001
 40
5.0
 40
5.0
 40
5.0
 40
5.0
 40
6.0
 40
6.0
 40
6.0
 40
6.0
 10
-2.117352433414995
 20
-16.92051428596087
 30
0.0
 10
-2.267881806210096
 20
-17.81976104868603
 30
0.0
 10
-2.407277268150154
 20
-19.21016616381927
 30
0.0
 10
-1.664620714277922
 20
-20.81035712110292
 30
0.0
  0
SPLINE
  5
101
330
77
100
AcDbEntity
  8
0
  6
Continuous
 62
     7
370
    18
100
AcDbSpline
210
0.0
220
0.0
230
1.0
 70
     8
 71
     3
 72
     8
 73
     4
 74
     0
 42
0.00000001
 43
0.00000001
 40
6.0
 40
6.0
 40
6.0
 40
6.0
 40
7.0
 40
7.0
 40
7.0
 40
7.0
 10
-1.664620714277922
 20
-20.81035712110292
 30
0.0
 10
-1.664312426395075
 20
-20.81130019442271
 30
0.0
 10
-1.664085644523588
 20
-20.81229447303425
 30
0.0
 10
-1.663777356640795
 20
-20.813237546354
 30
0.0
  0
SPLINE
  5
102
330
77
100
AcDbEntity
  8
0
  6
Continuous
 62
     7
370
    18
100
AcDbSpline
210
0.0
220
0.0
230
1.0
 70
     8
 71
     3
 72
     8
 73
     4
 74
     0
 42
0.00000001
 43
0.00000001
 40
7.0
 40
7.0
 40
7.0
 40
7.0
 40
8.0
 40
8.0
 40
8.0
 40
8.0
 10
-1.663777356640795
 20
-20.813237546354
 30
0.0
 10
-1.662901112489764
 20
-20.81490372147473
 30
0.0
 10
-1.661968964973327
 20
-20.81647793829811
 30
0.0
 10
-1.661092720823347
 20
-20.81814411341701
 30
0.0
  0
SPLINE
  5
103
330
77
100
AcDbEntity
  8
0
  6
Continuous
 62
     7
370
    18
100
AcDbSpline
210
0.0
220
0.0
230
1.0
 70
     8
 71
     3
 72
     8
 73
     4
 74
     0
 42
0.00000001
 43
0.00000001
 40
8.0
 40
8.0
 40
8.0
 40
8.0
 40
9.0
 40
9.0
 40
9.0
 40
9.0
 10
-1.661092720823347
 20
-20.81814411341701
 30
0.0
 10
-1.229373968722224
 20
-21.74517157116296
 30
0.0
 10
-0.5004685823514314
 20
-22.74228692212668
 30
0.0
 10
0.6942959165096505
 20
-23.75544460571742
 30
0.0
  0
SPLINE
  5
104
330
77
100
AcDbEntity
  8
0
  6
Continuous
 62
     7
370
    18
100
AcDbSpline
210
0.0
220
0.0
230
1.0
 70
     8
 71
     2
 72
     6
 73
     3
 74
     0
 42
0.00000001
 43
0.00000001
 40
9.0
 40
9.0
 40
9.0
 40
10.0
 40
10.0
 40
10.0
 10
0.6942959165096505
 20
-23.75544460571742
 30
0.0
 10
1.573046591396742
 20
-24.52641591715609
 30
0.0
 10
2.277251563960161
 20
-24.90565086721784
 30
0.0
  0
SPLINE
  5
105
330
77
100
AcDbEntity
  8
0
  6
Continuous
 62
     7
370
    18
100
AcDbSpline
210
0.0
220
0.0
230
1.0
 70
     8
 71
     3
 72
     8
 73
     4
 74
     0
 42
0.00000001
 43
0.00000001
 40
10.0
 40
10.0
 40
10.0
 40
10.0
 40
11.0
 40
11.0
 40
11.0
 40
11.0
 10
2.277251563960161
 20
-24.90565086721784
 30
0.0
 10
-0.3444737072681864
 20
-23.07744411042371
 30
0.0
 10
-1.384783611401682
 20
-21.0299715722269
 30
0.0
 10
-1.791077823248111
 20
-19.55173176913453
 30
0.0
  0
SPLINE
  5
106
330
77
100
AcDbEntity
  8
0
  6
Continuous
 62
     7
370
    18
100
AcDbSpline
210
0.0
220
0.0
230
1.0
 70
     8
 71
     3
 72
     8
 73
     4
 74
     0
 42
0.00000001
 43
0.00000001
 40
11.0
 40
11.0
 40
11.0
 40
11.0
 40
12.0
 40
12.0
 40
12.0
 40
12.0
 10
-1.791077823248111
 20
-19.55173176913453
 30
0.0
 10
-1.952004736442718
 20
-18.58763900877485
 30
0.0
 10
-1.857645689601465
 20
-17.53728176305358
 30
0.0
 10
-1.344635895048667
 20
-16.44003656241194
 30
0.0
  0
SPLINE
  5
107
330
77
100
AcDbEntity
  8
0
  6
Continuous
 62
     7
370
    18
100
AcDbSpline
210
0.0
220
0.0
230
1.0
 70
     8
 71
     3
 72
     8
 73
     4
 74
     0
 42
0.00000001
 43
0.00000001
 40
1.0
 40
1.0
 40
1.0
 40
1.0
 40
2.0
 40
2.0
 40
2.0
 40
2.0
 10
9.282072433202625
 20
-23.83234642604633
 30
0.0
 10
9.542961528798338
 20
-23.25329859518931
 30
0.0
 10
9.985495514983219
 20
-22.47632608388373
 30
0.0
 10
10.62007177823641
 20
-22.03794594188311
 30
0.0
  0
SPLINE
  5
108
330
77
100
AcDbEntity
  8
0
  6
Continuous
 62
     7
370
    18
100
AcDbSpline
210
0.0
220
0.0
230
1.0
 70
     8
 71
     3
 72
     8
 73
     4
 74
     0
 42
0.00000001
 43
0.00000001
 40
4.0
 40
4.0
 40
4.0
 40
4.0
 40
5.0
 40
5.0
 40
5.0
 40
5.0
 10
13.17134989821584
 20
-22.77125005992538
 30
0.0
 10
13.91734338198129
 20
-21.59974891081312
 30
0.0
 10
11.03631975087138
 20
-19.45853573582023
 30
0.0
 10
8.91093208540684
 20
-21.00902899615352
 30
0.0
  0
SPLINE
  5
109
330
77
100
AcDbEntity
  8
0
  6
Continuous
 62
     7
370
    18
100
AcDbSpline
210
0.0
220
0.0
230
1.0
 70
     8
 71
     3
 72
     8
 73
     4
 74
     0
 42
0.00000001
 43
0.00000001
 40
5.0
 40
5.0
 40
5.0
 40
5.0
 40
6.0
 40
6.0
 40
6.0
 40
6.0
 10
8.91093208540684
 20
-21.00902899615352
 30
0.0
 10
6.785544419941263
 20
-22.55952225648562
 30
0.0
 10
6.138264936105684
 20
-26.41214330901684
 30
0.0
 10
0.7891610119816483
 20
-30.05141434614796
 30
0.0
  0
SPLINE
  5
10A
330
77
100
AcDbEntity
  8
0
  6
Continuous
 62
     7
370
    18
100
AcDbSpline
210
0.0
220
0.0
230
1.0
 70
     8
 71
     2
 72
     6
 73
     3
 74
     0
 42
0.00000001
 43
0.00000001
 40
6.0
 40
6.0
 40
6.0
 40
7.0
 40
7.0
 40
7.0
 10
0.7891610119816483
 20
-30.05141434614796
 30
0.0
 10
2.027957268008918
 20
-29.56317356732477
 30
0.0
 10
2.266152999548186
 20
-29.47098631967676
 30
0.0
  0
SPLINE
  5
10B
330
77
100
AcDbEntity
  8
0
  6
Continuous
 62
     7
370
    18
100
AcDbSpline
210
0.0
220
0.0
230
1.0
 70
     8
 71
     3
 72
     8
 73
     4
 74
     0
 42
0.00000001
 43
0.00000001
 40
7.0
 40
7.0
 40
7.0
 40
7.0
 40
8.0
 40
8.0
 40
8.0
 40
8.0
 10
2.266152999548186
 20
-29.47098631967676
 30
0.0
 10
3.014801417132293
 20
-29.18122818076082
 30
0.0
 10
3.736118100429408
 20
-28.82241116458091
 30
0.0
 10
4.431146345693874
 20
-28.42149782758251
 30
0.0
  0
SPLINE
  5
10C
330
77
100
AcDbEntity
  8
0
  6
Continuous
 62
     7
370
    18
100
AcDbSpline
210
0.0
220
0.0
230
1.0
 70
     8
 71
     3
 72
     8
 73
     4
 74
     0
 42
0.00000001
 43
0.00000001
 40
9.0
 40
9.0
 40
9.0
 40
9.0
 40
10.0
 40
10.0
 40
10.0
 40
10.0
 10
5.741401688969916
 20
-27.62554000024407
 30
0.0
 10
7.060991710032899
 20
-26.77804674712032
 30
0.0
 10
8.443973707032603
 20
-26.09970911999108
 30
0.0
 10
9.267426036511852
 20
-23.87039661735003
 30
0.0
  0
SPLINE
  5
10D
330
77
100
AcDbEntity
  8
0
  6
Continuous
 62
     7
370
    18
100
AcDbSpline
210
0.0
220
0.0
230
1.0
 70
     8
 71
     3
 72
     8
 73
     4
 74
     0
 42
0.00000001
 43
0.00000001
 40
0.0
 40
0.0
 40
0.0
 40
0.0
 40
1.0
 40
1.0
 40
1.0
 40
1.0
 10
7.616643966539248
 20
-16.14063575935378
 30
0.0
 10
6.913790166466484
 20
-16.14488777689968
 30
0.0
 10
6.697443007890195
 20
-16.79416276836541
 30
0.0
 10
6.436018843175425
 20
-17.3230129233678
 30
0.0
  0
SPLINE
  5
10E
330
77
100
AcDbEntity
  8
0
  6
Continuous
 62
     7
370
    18
100
AcDbSpline
210
0.0
220
0.0
230
1.0
 70
     8
 71
     3
 72
     8
 73
     4
 74
     0
 42
0.00000001
 43
0.00000001
 40
1.0
 40
1.0
 40
1.0
 40
1.0
 40
2.0
 40
2.0
 40
2.0
 40
2.0
 10
6.436018843175425
 20
-17.3230129233678
 30
0.0
 10
5.948216897681968
 20
-18.30992905460965
 30
0.0
 10
5.052555161752526
 20
-19.5995436994
 30
0.0
 10
5.103926613042106
 20
-20.75366969743216
 30
0.0
  0
SPLINE
  5
10F
330
77
100
AcDbEntity
  8
0
  6
Continuous
 62
     7
370
    18
100
AcDbSpline
210
0.0
220
0.0
230
1.0
 70
     8
 71
     2
 72
     6
 73
     3
 74
     0
 42
0.00000001
 43
0.00000001
 40
2.0
 40
2.0
 40
2.0
 40
3.0
 40
3.0
 40
3.0
 10
5.103926613042106
 20
-20.75366969743216
 30
0.0
 10
5.110006812763316
 20
-21.55270934533252
 30
0.0
 10
5.893010450029737
 20
-21.89666129361517
 30
0.0
  0
SPLINE
  5
110
330
77
100
AcDbEntity
  8
0
  6
Continuous
 62
     7
370
    18
100
AcDbSpline
210
0.0
220
0.0
230
1.0
 70
     8
 71
     2
 72
     6
 73
     3
 74
     0
 42
0.00000001
 43
0.00000001
 40
3.0
 40
3.0
 40
3.0
 40
4.0
 40
4.0
 40
4.0
 10
5.893010450029737
 20
-21.89666129361517
 30
0.0
 10
5.064669634616712
 20
-21.16070169146862
 30
0.0
 10
5.897476922257513
 20
-19.59962191921445
 30
0.0
  0
SPLINE
  5
111
330
77
100
AcDbEntity
  8
0
  6
Continuous
 62
     7
370
    18
100
AcDbSpline
210
0.0
220
0.0
230
1.0
 70
     8
 71
     3
 72
     8
 73
     4
 74
     0
 42
0.00000001
 43
0.00000001
 40
4.0
 40
4.0
 40
4.0
 40
4.0
 40
5.0
 40
5.0
 40
5.0
 40
5.0
 10
5.897476922257513
 20
-19.59962191921445
 30
0.0
 10
6.365882597961094
 20
-18.72160531632978
 30
0.0
 10
6.783564254303969
 20
-18.1502556103958
 30
0.0
 10
6.961063665415703
 20
-17.79297771071811
 30
0.0
  0
SPLINE
  5
112
330
77
100
AcDbEntity
  8
0
  6
Continuous
 62
     7
370
    18
100
AcDbSpline
210
0.0
220
0.0
230
1.0
 70
     8
 71
     3
 72
     8
 73
     4
 74
     0
 42
0.00000001
 43
0.00000001
 40
5.0
 40
5.0
 40
5.0
 40
5.0
 40
6.0
 40
6.0
 40
6.0
 40
6.0
 10
6.961063665415703
 20
-17.79297771071811
 30
0.0
 10
6.969564036079641
 20
-17.77592889764838
 30
0.0
 10
6.978008503380095
 20
-17.75897204287472
 30
0.0
 10
6.986317910343667
 20
-17.74207161953264
 30
0.0
  0
SPLINE
  5
113
330
77
100
AcDbEntity
  8
0
  6
Continuous
 62
     7
370
    18
100
AcDbSpline
210
0.0
220
0.0
230
1.0
 70
     8
 71
     2
 72
     6
 73
     3
 74
     0
 42
0.00000001
 43
0.00000001
 40
6.0
 40
6.0
 40
6.0
 40
7.0
 40
7.0
 40
7.0
 10
6.986317910343667
 20
-17.74207161953264
 30
0.0
 10
7.02365081475716
 20
-17.66624177102196
 30
0.0
 10
7.044485288742809
 20
-17.62223308004855
 30
0.0
  0
SPLINE
  5
114
330
77
100
AcDbEntity
  8
0
  6
Continuous
 62
     7
370
    18
100
AcDbSpline
210
0.0
220
0.0
230
1.0
 70
     8
 71
     3
 72
     8
 73
     4
 74
     0
 42
0.00000001
 43
0.00000001
 40
8.0
 40
8.0
 40
8.0
 40
8.0
 40
9.0
 40
9.0
 40
9.0
 40
9.0
 10
7.043747273343362
 20
-17.62187258528872
 30
0.0
 10
7.259429684873595
 20
-17.1682239392887
 30
0.0
 10
7.409758570724429
 20
-16.77384940600867
 30
0.0
 10
7.501213874593598
 20
-16.5071459647044
 30
0.0
  0
SPLINE
  5
115
330
77
100
AcDbEntity
  8
0
  6
Continuous
 62
     7
370
    18
100
AcDbSpline
210
0.0
220
0.0
230
1.0
 70
     8
 71
     2
 72
     6
 73
     3
 74
     0
 42
0.00000001
 43
0.00000001
 40
9.0
 40
9.0
 40
9.0
 40
10.0
 40
10.0
 40
10.0
 10
7.501213874593598
 20
-16.5071459647044
 30
0.0
 10
7.58018144071422
 20
-16.27701921792476
 30
0.0
 10
7.616643966539248
 20
-16.14063575935378
 30
0.0
  0
SPLINE
  5
116
330
77
100
AcDbEntity
  8
0
  6
Continuous
 62
     7
370
    18
100
AcDbSpline
210
0.0
220
0.0
230
1.0
 70
     8
 71
     2
 72
     6
 73
     3
 74
     0
 42
0.00000001
 43
0.00000001
 40
0.0
 40
0.0
 40
0.0
 40
1.0
 40
1.0
 40
1.0
 10
0.3944126526828438
 20
-2.906969795378479
 30
0.0
 10
-0.9260675992531606
 20
-7.098093552135839
 30
0.0
 10
3.694246552495818
 20
-15.91394980485279
 30
0.0
  0
SPLINE
  5
117
330
77
100
AcDbEntity
  8
0
  6
Continuous
 62
     7
370
    18
100
AcDbSpline
210
0.0
220
0.0
230
1.0
 70
     8
 71
     3
 72
     8
 73
     4
 74
     0
 42
0.00000001
 43
0.00000001
 40
1.0
 40
1.0
 40
1.0
 40
1.0
 40
2.0
 40
2.0
 40
2.0
 40
2.0
 10
3.694246552495818
 20
-15.91394980485279
 30
0.0
 10
3.446899321752916
 20
-17.12012815823227
 30
0.0
 10
3.357918547908363
 20
-18.01529334045489
 30
0.0
 10
3.369570932292986
 20
-18.71508939083513
 30
0.0
  0
SPLINE
  5
118
330
77
100
AcDbEntity
  8
0
  6
Continuous
 62
     7
370
    18
100
AcDbSpline
210
0.0
220
0.0
230
1.0
 70
     8
 71
     3
 72
     8
 73
     4
 74
     0
 42
0.00000001
 43
0.00000001
 40
4.0
 40
4.0
 40
4.0
 40
4.0
 40
5.0
 40
5.0
 40
5.0
 40
5.0
 10
3.371167179561167
 20
-18.80258270306617
 30
0.0
 10
3.375320776009459
 20
-18.94553433452855
 30
0.0
 10
3.384065732186145
 20
-19.07969038264685
 30
0.0
 10
3.396375939104116
 20
-19.20694591668476
 30
0.0
  0
SPLINE
  5
119
330
77
100
AcDbEntity
  8
0
  6
Continuous
 62
     7
370
    18
100
AcDbSpline
210
0.0
220
0.0
230
1.0
 70
     8
 71
     2
 72
     6
 73
     3
 74
     0
 42
0.00000001
 43
0.00000001
 40
6.0
 40
6.0
 40
6.0
 40
7.0
 40
7.0
 40
7.0
 10
3.414912572583571
 20
-19.50415597158925
 30
0.0
 10
3.463733909636759
 20
-20.44034883554467
 30
0.0
 10
4.199514098340574
 20
-21.43655542025973
 30
0.0
  0
SPLINE
  5
11A
330
77
100
AcDbEntity
  8
0
  6
Continuous
 62
     7
370
    18
100
AcDbSpline
210
0.0
220
0.0
230
1.0
 70
     8
 71
     3
 72
     8
 73
     4
 74
     0
 42
0.00000001
 43
0.00000001
 40
7.0
 40
7.0
 40
7.0
 40
7.0
 40
8.0
 40
8.0
 40
8.0
 40
8.0
 10
4.199514098340574
 20
-21.43655542025973
 30
0.0
 10
4.209530614512485
 20
-21.44734234739126
 30
0.0
 10
4.217448187290456
 20
-21.45279791477912
 30
0.0
 10
4.226419929838382
 20
-21.46074569773323
 30
0.0
  0
SPLINE
  5
11B
330
77
100
AcDbEntity
  8
0
  6
Continuous
 62
     7
370
    18
100
AcDbSpline
210
0.0
220
0.0
230
1.0
 70
     8
 71
     2
 72
     6
 73
     3
 74
     0
 42
0.00000001
 43
0.00000001
 40
8.0
 40
8.0
 40
8.0
 40
9.0
 40
9.0
 40
9.0
 10
4.226419929838382
 20
-21.46074569773323
 30
0.0
 10
4.602113169577764
 20
-21.92169141031366
 30
0.0
 10
5.25588783635365
 20
-22.1084696061984
 30
0.0
  0
SPLINE
  5
11C
330
77
100
AcDbEntity
  8
0
  6
Continuous
 62
     7
370
    18
100
AcDbSpline
210
0.0
220
0.0
230
1.0
 70
     8
 71
     3
 72
     8
 73
     4
 74
     0
 42
0.00000001
 43
0.00000001
 40
9.0
 40
9.0
 40
9.0
 40
9.0
 40
10.0
 40
10.0
 40
10.0
 40
10.0
 10
5.25588783635365
 20
-22.1084696061984
 30
0.0
 10
4.722803653588975
 20
-21.69473771792311
 30
0.0
 10
4.555729374077984
 20
-21.23618402102321
 30
0.0
 10
4.5115397999614
 20
-20.91388289798429
 30
0.0
  0
SPLINE
  5
11D
330
77
100
AcDbEntity
  8
0
  6
Continuous
 62
     7
370
    18
100
AcDbSpline
210
0.0
220
0.0
230
1.0
 70
     8
 71
     3
 72
     8
 73
     4
 74
     0
 42
0.00000001
 43
0.00000001
 40
10.0
 40
10.0
 40
10.0
 40
10.0
 40
11.0
 40
11.0
 40
11.0
 40
11.0
 10
4.5115397999614
 20
-20.91388289798429
 30
0.0
 10
4.511444436489974
 20
-20.91345968950935
 30
0.0
 10
4.511458530710389
 20
-20.91293929659483
 30
0.0
 10
4.51136316724085
 20
-20.91251608811877
 30
0.0
  0
SPLINE
  5
11E
330
77
100
AcDbEntity
  8
0
  6
Continuous
 62
     7
370
    18
100
AcDbSpline
210
0.0
220
0.0
230
1.0
 70
     8
 71
     3
 72
     8
 73
     4
 74
     0
 42
0.00000001
 43
0.00000001
 40
11.0
 40
11.0
 40
11.0
 40
11.0
 40
12.0
 40
12.0
 40
12.0
 40
12.0
 10
4.51136316724085
 20
-20.91251608811877
 30
0.0
 10
4.492940501693147
 20
-20.77725000285986
 30
0.0
 10
4.49631721425359
 20
-20.66736453587088
 30
0.0
 10
4.503170896062897
 20
-20.59377375245777
 30
0.0
  0
SPLINE
  5
11F
330
77
100
AcDbEntity
  8
0
  6
Continuous
 62
     7
370
    18
100
AcDbSpline
210
0.0
220
0.0
230
1.0
 70
     8
 71
     3
 72
     8
 73
     4
 74
     0
 42
0.00000001
 43
0.00000001
 40
12.0
 40
12.0
 40
12.0
 40
12.0
 40
13.0
 40
13.0
 40
13.0
 40
13.0
 10
4.503170896062897
 20
-20.59377375245777
 30
0.0
 10
4.604013649449088
 20
-19.7965617294209
 30
0.0
 10
5.139276617404003
 20
-18.9096664850367
 30
0.0
 10
5.595548611273902
 20
-17.9099700673493
 30
0.0
  0
SPLINE
  5
120
330
77
100
AcDbEntity
  8
0
  6
Continuous
 62
     7
370
    18
100
AcDbSpline
210
0.0
220
0.0
230
1.0
 70
     8
 71
     2
 72
     6
 73
     3
 74
     0
 42
0.00000001
 43
0.00000001
 40
13.0
 40
13.0
 40
13.0
 40
14.0
 40
14.0
 40
14.0
 10
5.595548611273902
 20
-17.9099700673493
 30
0.0
 10
5.926118360772201
 20
-17.18568850106854
 30
0.0
 10
5.606497978493191
 20
-16.05075397327447
 30
0.0
  0
SPLINE
  5
121
330
77
100
AcDbEntity
  8
0
  6
Continuous
 62
     7
370
    18
100
AcDbSpline
210
0.0
220
0.0
230
1.0
 70
     8
 71
     3
 72
     8
 73
     4
 74
     0
 42
0.00000001
 43
0.00000001
 40
14.0
 40
14.0
 40
14.0
 40
14.0
 40
15.0
 40
15.0
 40
15.0
 40
15.0
 10
5.606497978493191
 20
-16.05075397327447
 30
0.0
 10
5.207525970226131
 20
-14.79026275050278
 30
0.0
 10
4.519773960143639
 20
-13.82671693217636
 30
0.0
 10
3.665223439147876
 20
-12.83569943160955
 30
0.0
  0
SPLINE
  5
122
330
77
100
AcDbEntity
  8
0
  6
Continuous
 62
     7
370
    18
100
AcDbSpline
210
0.0
220
0.0
230
1.0
 70
     8
 71
     3
 72
     8
 73
     4
 74
     0
 42
0.00000001
 43
0.00000001
 40
15.0
 40
15.0
 40
15.0
 40
15.0
 40
16.0
 40
16.0
 40
16.0
 40
16.0
 10
3.665223439147876
 20
-12.83569943160955
 30
0.0
 10
2.198391383191843
 20
-11.13462081873923
 30
0.0
 10
0.0517992661647096
 20
-7.209063579032926
 30
0.0
 10
0.3944126526828438
 20
-2.906969795378479
 30
0.0
  0
ENDBLK
  5
79
330
77
100
AcDbEntity
  8
0
100
AcDbBlockEnd
  0
ENDSEC
  0
SECTION
  2
ENTITIES
  0
ARC
  5
123
330
1F
100
AcDbEntity
  8
0
  6
Continuous
 62
     7
370
    25
100
AcDbCircle
 10
90.6343244809
 20
723.4794728348
 30
0.0
 40
2.0
100
AcDbArc
 50
90.0
 51
180.0
  0
ARC
  5
124
330
1F
100
AcDbEntity
  8
0
  6
Continuous
 62
     7
370
    25
100
AcDbCircle
 10
105.6343244809
 20
723.4794728348
 30
0.0
 40
2.0
100
AcDbArc
 50
0.0
 51
90.0
  0
LINE
  5
125
330
1F
100
AcDbEntity
  8
0
  6
Continuous
 62
     7
370
    25
100
AcDbLine
 10
107.6343244809
 20
713.9794728348
 30
0.0
 11
107.6343244809
 21
723.4794728348
 31
0.0
  0
LINE
  5
126
330
1F
100
AcDbEntity
  8
0
  6
Continuous
 62
     7
370
    25
100
AcDbLine
 10
88.6343244809
 20
723.4794728348
 30
0.0
 11
88.6343244809
 21
713.9794728348
 31
0.0
  0
LINE
  5
127
330
1F
100
AcDbEntity
  8
0
  6
Continuous
 62
     7
370
    25
100
AcDbLine
 10
95.1343244808
 20
711.9794728348
 30
0.0
 11
95.1343244808
 21
711.6794728348
 31
0.0
  0
LINE
  5
128
330
1F
100
AcDbEntity
  8
0
  6
Continuous
 62
     7
370
    25
100
AcDbLine
 10
101.1343244808
 20
711.6794728348
 30
0.0
 11
101.1343244808
 21
711.9794728348
 31
0.0
  0
LINE
  5
129
330
1F
100
AcDbEntity
  8
0
  6
Continuous
 62
     7
370
    25
100
AcDbLine
 10
952.9717772943
 20
539.5639438771
 30
0.0
 11
960.3443821177
 21
547.4153576426
 31
0.0
  0
LINE
  5
12A
330
1F
100
AcDbEntity
  8
0
  6
Continuous
 62
     7
370
    25
100
AcDbLine
 10
936.2551411985
 20
599.0749015037
 30
0.0
 11
925.5015902812
 21
598.4739500344
 31
0.0
  0
LINE
  5
12B
330
1F
100
AcDbEntity
  8
0
  6
Continuous
 62
     7
370
    25
100
AcDbLine
 10
960.3443821177
 20
547.4153576426
 30
0.0
 11
974.2447182131
 21
563.5348263176
 31
0.0
  0
LINE
  5
12C
330
1F
100
AcDbEntity
  8
0
  6
Continuous
 62
     7
370
    25
100
AcDbLine
 10
936.7550957825
 20
599.0816404931
 30
0.0
 11
936.2551411985
 21
599.0749015037
 31
0.0
  0
ARC
  5
12D
330
1F
100
AcDbEntity
  8
0
  6
Continuous
 62
     7
370
    25
100
AcDbCircle
 10
973.4874068292
 20
564.1878802723
 30
0.0
 40
1.000000000000062
100
AcDbArc
 50
319.227745318
 51
25.0
  0
LINE
  5
12E
330
1F
100
AcDbEntity
  8
0
  6
Continuous
 62
     7
370
    25
100
AcDbLine
 10
934.9443052945
 20
558.4661991207
 30
0.0
 11
935.8506130815
 21
558.8888173824
 31
0.0
  0
LINE
  5
12F
330
1F
100
AcDbEntity
  8
0
  6
Continuous
 62
     7
370
    25
100
AcDbLine
 10
929.3000300245
 20
572.9365880815
 30
0.0
 11
928.3937222375
 21
572.5139698197
 31
0.0
  0
LINE
  5
130
330
1F
100
AcDbEntity
  8
0
  6
Continuous
 62
     7
370
    25
100
AcDbLine
 10
935.8717439946
 20
558.8435019931
 30
0.0
 11
938.5578102482
 21
561.3649198642
 31
0.0
  0
LINE
  5
131
330
1F
100
AcDbEntity
  8
0
  6
Continuous
 62
     7
370
    25
100
AcDbLine
 10
932.9369873671
 20
573.4188134318
 30
0.0
 11
929.2788991114
 21
572.9819034708
 31
0.0
  0
ARC
  5
132
330
1F
100
AcDbEntity
  8
0
  6
Continuous
 62
     7
370
    25
100
AcDbCircle
 10
927.9134670057
 20
590.1072915701
 30
0.0
 40
2.000000000000051
100
AcDbArc
 50
205.0
 51
292.0
  0
ARC
  5
133
330
1F
100
AcDbEntity
  8
0
  6
Continuous
 62
     7
370
    25
100
AcDbCircle
 10
948.1128695448
 20
546.7895330347
 30
0.0
 40
2.000000000000082
100
AcDbArc
 50
118.0
 51
205.0
  0
LINE
  5
134
330
1F
100
AcDbEntity
  8
0
  6
Continuous
 62
     7
370
    25
100
AcDbLine
 10
947.1739264192
 20
548.5554282204
 30
0.0
 11
948.4600881227
 21
549.2392925288
 31
0.0
  0
LINE
  5
135
330
1F
100
AcDbEntity
  8
0
  6
Continuous
 62
     7
370
    25
100
AcDbLine
 10
930.0132794528
 20
588.7986013827
 30
0.0
 11
928.6626801925
 21
588.2529238609
 31
0.0
  0
LINE
  5
136
330
1F
100
AcDbEntity
  8
0
  6
Continuous
 62
     7
370
    25
100
AcDbLine
 10
959.1392007791
 20
506.5800783128
 30
0.0
 11
959.5812804304
 21
506.8151362329
 31
0.0
  0
LINE
  5
137
330
1F
100
AcDbEntity
  8
0
  6
Continuous
 62
     7
370
    25
100
AcDbLine
 10
86.2695099708
 20
436.0794728348
 30
0.0
 11
86.2695099708
 21
433.6794728348
 31
0.0
  0
LINE
  5
138
330
1F
100
AcDbEntity
  8
0
  6
Continuous
 62
     7
370
    25
100
AcDbLine
 10
115.9695099708
 20
433.6794728348
 30
0.0
 11
115.9695099708
 21
436.0794728348
 31
0.0
  0
ARC
  5
139
330
1F
100
AcDbEntity
  8
0
  6
Continuous
 62
     7
370
    25
100
AcDbCircle
 10
91.2695099708
 20
420.5794728348
 30
0.0
 40
5.0
100
AcDbArc
 50
180.0
 51
270.0
  0
ARC
  5
13A
330
1F
100
AcDbEntity
  8
0
  6
Continuous
 62
     7
370
    25
100
AcDbCircle
 10
110.9695099708
 20
420.5794728348
 30
0.0
 40
5.0
100
AcDbArc
 50
270.0
 51
0.0
  0
LINE
  5
13B
330
1F
100
AcDbEntity
  8
0
  6
Continuous
 62
     7
370
    25
100
AcDbLine
 10
86.2695099708
 20
429.7794728348
 30
0.0
 11
86.2695099708
 21
420.5794728348
 31
0.0
  0
LINE
  5
13C
330
1F
100
AcDbEntity
  8
0
  6
Continuous
 62
     7
370
    25
100
AcDbLine
 10
115.9695099708
 20
420.5794728348
 30
0.0
 11
115.9695099708
 21
429.7794728348
 31
0.0
  0
LINE
  5
13D
330
1F
100
AcDbEntity
  8
0
  6
Continuous
 62
     7
370
    25
100
AcDbLine
 10
115.1195099708
 20
436.0794728348
 30
0.0
 11
115.1195099708
 21
441.5794728348
 31
0.0
  0
LINE
  5
13E
330
1F
100
AcDbEntity
  8
0
  6
Continuous
 62
     7
370
    25
100
AcDbLine
 10
87.1195099708
 20
441.5794728348
 30
0.0
 11
87.1195099708
 21
436.0794728348
 31
0.0
  0
LINE
  5
13F
330
1F
100
AcDbEntity
  8
0
  6
Continuous
 62
     7
370
    25
100
AcDbLine
 10
114.1195099708
 20
441.5794728348
 30
0.0
 11
114.1195099708
 21
443.5794728348
 31
0.0
  0
LINE
  5
140
330
1F
100
AcDbEntity
  8
0
  6
Continuous
 62
     7
370
    25
100
AcDbLine
 10
88.1195099708
 20
443.5794728348
 30
0.0
 11
88.1195099708
 21
441.5794728348
 31
0.0
  0
LINE
  5
141
330
1F
100
AcDbEntity
  8
0
  6
Continuous
 62
     7
370
    25
100
AcDbLine
 10
84.3695099708
 20
433.6794728348
 30
0.0
 11
84.3695099708
 21
429.7794728348
 31
0.0
  0
LINE
  5
142
330
1F
100
AcDbEntity
  8
0
  6
Continuous
 62
     7
370
    25
100
AcDbLine
 10
117.8695099708
 20
429.7794728348
 30
0.0
 11
117.8695099708
 21
433.6794728348
 31
0.0
  0
SPLINE
  5
143
330
1F
100
AcDbEntity
  8
0
  6
Continuous
 62
     7
370
    25
100
AcDbSpline
210
0.0
220
0.0
230
1.0
 70
     8
 71
     3
 72
     9
 73
     5
 74
     0
 42
0.00000001
 43
0.00000001
 40
0.0
 40
0.0
 40
0.0
 40
0.0
 40
0.7042167434048708
 40
0.9999999999999999
 40
0.9999999999999999
 40
0.9999999999999999
 40
0.9999999999999999
 10
107.2419271913782
 20
436.0316370381244
 30
0.0
 10
107.2705167957555
 20
436.0329829942058
 30
0.0
 10
107.3111145302528
 20
436.0348942752057
 30
0.0
 10
107.3449928640286
 20
436.0558572134958
 30
0.0
 10
107.3550135079208
 20
436.0620576996511
 30
0.0
  0
SPLINE
  5
144
330
1F
100
AcDbEntity
  8
0
  6
Continuous
 62
     7
370
    25
100
AcDbSpline
210
0.0
220
0.0
230
1.0
 70
     8
 71
     3
 72
    10
 73
     6
 74
     0
 42
0.00000001
 43
0.00000001
 40
0.0
 40
0.0
 40
0.0
 40
0.0
 40
0.4243732818143016
 40
0.8146804732673062
 40
1.0
 40
1.0
 40
1.0
 40
1.0
 10
100.9943154951055
 20
437.2152933558539
 30
0.0
 10
100.9938066141625
 20
437.1704065940156
 30
0.0
 10
100.9928297021249
 20
437.0842363049211
 30
0.0
 10
100.9907578048207
 20
437.0190326430058
 30
0.0
 10
100.9903248315969
 20
437.0121170177899
 30
0.0
 10
100.9901854384965
 20
437.0098905742431
 30
0.0
  0
ARC
  5
145
330
1F
100
AcDbEntity
  8
0
  6
Continuous
 62
     7
370
    25
100
AcDbCircle
 10
112.5695099708
 20
436.2794728348
 30
0.0
 40
0.2499999999999716
100
AcDbArc
 50
270.0
 51
0.0
  0
LINE
  5
146
330
1F
100
AcDbEntity
  8
0
  6
Continuous
 62
     7
370
    25
100
AcDbLine
 10
112.8195099708
 20
436.2794728348
 30
0.0
 11
112.8195099708
 21
436.9794728348
 31
0.0
  0
ARC
  5
147
330
1F
100
AcDbEntity
  8
0
  6
Continuous
 62
     7
370
    25
100
AcDbCircle
 10
95.3695099708
 20
436.9794728348
 30
0.0
 40
1.450000000000102
100
AcDbArc
 50
90.0
 51
180.0
  0
SPLINE
  5
148
330
1F
100
AcDbEntity
  8
0
  6
Continuous
 62
     7
370
    25
100
AcDbSpline
210
0.0
220
0.0
230
1.0
 70
     8
 71
     3
 72
    12
 73
     8
 74
     0
 42
0.00000001
 43
0.00000001
 40
0.0
 40
0.0
 40
0.0
 40
0.0
 40
0.1148459575083225
 40
0.3220947989294841
 40
0.5450951899380458
 40
0.7935742620768775
 40
0.9999999999999999
 40
0.9999999999999999
 40
0.9999999999999999
 40
0.9999999999999999
 10
95.89395562184922
 20
436.9793314711655
 30
0.0
 10
95.89328893245714
 20
436.9953825511507
 30
0.0
 10
95.89141914800553
 20
437.0403991063051
 30
0.0
 10
95.9259505642292
 20
437.1114876912137
 30
0.0
 10
95.99105494048621
 20
437.1793011609839
 30
0.0
 10
96.07716002306604
 20
437.2234672239155
 30
0.0
 10
96.1400944030123
 20
437.22500668706
 30
0.0
 10
96.16865263219299
 20
437.225705261374
 30
0.0
  0
LINE
  5
149
330
1F
100
AcDbEntity
  8
0
  6
Continuous
 62
     7
370
    25
100
AcDbLine
 10
95.8896401654
 20
431.8794728348
 30
0.0
 11
95.8896401654
 21
436.9794728348
 31
0.0
  0
ARC
  5
14A
330
1F
100
AcDbEntity
  8
0
  6
Continuous
 62
     7
370
    25
100
AcDbCircle
 10
95.6396401654
 20
431.8794728348
 30
0.0
 40
0.25
100
AcDbArc
 50
270.0
 51
0.0
  0
LINE
  5
14B
330
1F
100
AcDbEntity
  8
0
  6
Continuous
 62
     7
370
    25
100
AcDbLine
 10
93.9195099708
 20
436.9794728348
 30
0.0
 11
93.9195099708
 21
431.8794728348
 31
0.0
  0
ARC
  5
14C
330
1F
100
AcDbEntity
  8
0
  6
Continuous
 62
     7
370
    25
100
AcDbCircle
 10
94.1695099708
 20
431.8794728348
 30
0.0
 40
0.25
100
AcDbArc
 50
180.0
 51
270.0
  0
SPLINE
  5
14D
330
1F
100
AcDbEntity
  8
0
  6
Continuous
 62
     7
370
    25
100
AcDbSpline
210
0.0
220
0.0
230
1.0
 70
     8
 71
     3
 72
    12
 73
     8
 74
     0
 42
0.00000001
 43
0.00000001
 40
0.0
 40
0.0
 40
0.0
 40
0.0
 40
0.1344219334785064
 40
0.4207532067409986
 40
0.6529395214073682
 40
0.8605138293705985
 40
1.0
 40
1.0
 40
1.0
 40
1.0
 10
112.5642155853874
 20
437.2240938609224
 30
0.0
 10
112.5823101257722
 20
437.2245786732377
 30
0.0
 10
112.6389477271996
 20
437.2260961810659
 30
0.0
 10
112.7219923295525
 20
437.1861475136017
 30
0.0
 10
112.7922963983467
 20
437.1178841892577
 30
0.0
 10
112.8290406727764
 20
437.0452763639518
 30
0.0
 10
112.8295816160177
 20
436.9979445577235
 30
0.0
 10
112.8297990251032
 20
436.9789215550858
 30
0.0
  0
LINE
  5
14E
330
1F
100
AcDbEntity
  8
0
  6
Continuous
 62
     7
370
    25
100
AcDbLine
 10
112.8327569398
 20
436.9794728348
 30
0.0
 11
112.8327569398
 21
431.8794728348
 31
0.0
  0
ARC
  5
14F
330
1F
100
AcDbEntity
  8
0
  6
Continuous
 62
     7
370
    25
100
AcDbCircle
 10
113.0827569398
 20
431.8794728348
 30
0.0
 40
0.2500000000000568
100
AcDbArc
 50
180.0
 51
270.0
  0
ARC
  5
150
330
1F
100
AcDbEntity
  8
0
  6
Continuous
 62
     7
370
    25
100
AcDbCircle
 10
112.8695099708
 20
436.9794728348
 30
0.0
 40
1.449999999999989
100
AcDbArc
 50
0.0
 51
90.0
  0
ARC
  5
151
330
1F
100
AcDbEntity
  8
0
  6
Continuous
 62
     7
370
    25
100
AcDbCircle
 10
114.0695099708
 20
431.8794728348
 30
0.0
 40
0.2500000000000568
100
AcDbArc
 50
270.0
 51
0.0
  0
LINE
  5
152
330
1F
100
AcDbEntity
  8
0
  6
Continuous
 62
     7
370
    25
100
AcDbLine
 10
114.3195099708
 20
431.8794728348
 30
0.0
 11
114.3195099708
 21
436.9794728348
 31
0.0
  0
ARC
  5
153
330
1F
100
AcDbEntity
  8
0
  6
Continuous
 62
     7
370
    25
100
AcDbCircle
 10
112.5993797763
 20
431.8794728348
 30
0.0
 40
0.2500000000000568
100
AcDbArc
 50
180.0
 51
270.0
  0
LINE
  5
154
330
1F
100
AcDbEntity
  8
0
  6
Continuous
 62
     7
370
    25
100
AcDbLine
 10
112.3493797763
 20
436.0294728348
 30
0.0
 11
112.3493797763
 21
431.8794728348
 31
0.0
  0
LINE
  5
155
330
1F
100
AcDbEntity
  8
0
  6
Continuous
 62
     7
370
    25
100
AcDbLine
 10
99.1195099708
 20
443.6294728348
 30
0.0
 11
98.4833504254
 21
443.26218595
 31
0.0
  0
LINE
  5
156
330
1F
100
AcDbEntity
  8
0
  6
Continuous
 62
     7
370
    25
100
AcDbLine
 10
98.4833504254
 20
438.7967597196
 30
0.0
 11
99.1195099708
 21
438.4294728348
 31
0.0
  0
LINE
  5
157
330
1F
100
AcDbEntity
  8
0
  6
Continuous
 62
     7
370
    25
100
AcDbLine
 10
109.7556695162
 20
443.26218595
 30
0.0
 11
109.1195099708
 21
443.6294728348
 31
0.0
  0
LINE
  5
158
330
1F
100
AcDbEntity
  8
0
  6
Continuous
 62
     7
370
    25
100
AcDbLine
 10
109.1195099708
 20
438.4294728348
 30
0.0
 11
109.7556695162
 21
438.7967597196
 31
0.0
  0
LINE
  5
159
330
1F
100
AcDbEntity
  8
0
  6
Continuous
 62
     7
370
    25
100
AcDbLine
 10
99.1195099708
 20
436.0294728348
 30
0.0
 11
99.0692076806
 21
436.000430794
 31
0.0
  0
LINE
  5
15A
330
1F
100
AcDbEntity
  8
0
  6
Continuous
 62
     7
370
    25
100
AcDbLine
 10
99.0692076806
 20
430.8585148756
 30
0.0
 11
99.1195099708
 21
430.8294728348
 31
0.0
  0
LINE
  5
15B
330
1F
100
AcDbEntity
  8
0
  6
Continuous
 62
     7
370
    25
100
AcDbLine
 10
109.1698122611
 20
436.000430794
 30
0.0
 11
109.1195099708
 21
436.0294728348
 31
0.0
  0
LINE
  5
15C
330
1F
100
AcDbEntity
  8
0
  6
Continuous
 62
     7
370
    25
100
AcDbLine
 10
109.1195099708
 20
430.8294728348
 30
0.0
 11
109.1698122611
 21
430.8585148756
 31
0.0
  0
LINE
  5
15D
330
1F
100
AcDbEntity
  8
0
  6
Continuous
 62
     7
370
    25
100
AcDbLine
 10
101.1195099708
 20
443.8794728348
 30
0.0
 11
101.1195099708
 21
443.6294728348
 31
0.0
  0
LINE
  5
15E
330
1F
100
AcDbEntity
  8
0
  6
Continuous
 62
     7
370
    25
100
AcDbLine
 10
107.1195099708
 20
443.6294728348
 30
0.0
 11
107.1195099708
 21
443.8794728348
 31
0.0
  0
ARC
  5
15F
330
1F
100
AcDbEntity
  8
0
  6
Continuous
 62
     7
370
    25
100
AcDbCircle
 10
227.1195099708
 20
349.5794728348
 30
0.0
 40
2.0
100
AcDbArc
 50
270.0
 51
0.0
  0
ARC
  5
160
330
1F
100
AcDbEntity
  8
0
  6
Continuous
 62
     7
370
    25
100
AcDbCircle
 10
174.1195099708
 20
349.5794728348
 30
0.0
 40
2.0
100
AcDbArc
 50
180.0
 51
270.0
  0
LINE
  5
161
330
1F
100
AcDbEntity
  8
0
  6
Continuous
 62
     7
370
    25
100
AcDbLine
 10
229.1195099708
 20
349.5794728348
 30
0.0
 11
229.1195099708
 21
353.5794728348
 31
0.0
  0
LINE
  5
162
330
1F
100
AcDbEntity
  8
0
  6
Continuous
 62
     7
370
    25
100
AcDbLine
 10
172.1195099708
 20
353.5794728348
 30
0.0
 11
172.1195099708
 21
349.5794728348
 31
0.0
  0
ARC
  5
163
330
1F
100
AcDbEntity
  8
0
  6
Continuous
 62
     7
370
    25
100
AcDbCircle
 10
806.1195099708
 20
349.5794728348
 30
0.0
 40
2.0
100
AcDbArc
 50
270.0
 51
0.0
  0
ARC
  5
164
330
1F
100
AcDbEntity
  8
0
  6
Continuous
 62
     7
370
    25
100
AcDbCircle
 10
753.1195099708
 20
349.5794728348
 30
0.0
 40
2.0
100
AcDbArc
 50
180.0
 51
270.0
  0
LINE
  5
165
330
1F
100
AcDbEntity
  8
0
  6
Continuous
 62
     7
370
    25
100
AcDbLine
 10
808.1195099708
 20
349.5794728348
 30
0.0
 11
808.1195099708
 21
353.5794728348
 31
0.0
  0
LINE
  5
166
330
1F
100
AcDbEntity
  8
0
  6
Continuous
 62
     7
370
    25
100
AcDbLine
 10
751.1195099708
 20
353.5794728348
 30
0.0
 11
751.1195099708
 21
349.5794728348
 31
0.0
  0
LINE
  5
167
330
1F
100
AcDbEntity
  8
0
  6
Continuous
 62
     7
370
    25
100
AcDbLine
 10
807.9195099708
 20
353.5794728348
 30
0.0
 11
807.9195099708
 21
382.5794728348
 31
0.0
  0
LINE
  5
168
330
1F
100
AcDbEntity
  8
0
  6
Continuous
 62
     7
370
    25
100
AcDbLine
 10
751.3195099708
 20
382.5794728348
 30
0.0
 11
751.3195099708
 21
353.5794728348
 31
0.0
  0
LINE
  5
169
330
1F
100
AcDbEntity
  8
0
  6
Continuous
 62
     7
370
    25
100
AcDbLine
 10
228.9195099708
 20
353.5794728348
 30
0.0
 11
228.9195099708
 21
382.5794728348
 31
0.0
  0
LINE
  5
16A
330
1F
100
AcDbEntity
  8
0
  6
Continuous
 62
     7
370
    25
100
AcDbLine
 10
172.3195099708
 20
382.5794728348
 30
0.0
 11
172.3195099708
 21
353.5794728348
 31
0.0
  0
ARC
  5
16B
330
1F
100
AcDbEntity
  8
0
  6
Continuous
 62
     7
370
    25
100
AcDbCircle
 10
813.0195099708
 20
444.0794728348
 30
0.0
 40
1.5
100
AcDbArc
 50
90.0
 51
180.0
  0
ARC
  5
16C
330
1F
100
AcDbEntity
  8
0
  6
Continuous
 62
     7
370
    25
100
AcDbCircle
 10
746.2195099708
 20
444.0794728348
 30
0.0
 40
1.500000000000114
100
AcDbArc
 50
0.0
 51
90.0
  0
ARC
  5
16D
330
1F
100
AcDbEntity
  8
0
  6
Continuous
 62
     7
370
    25
100
AcDbCircle
 10
806.8195099708
 20
388.6120387804
 30
0.0
 40
4.699999999999932
100
AcDbArc
 50
350.5402980318
 51
0.0
  0
ARC
  5
16E
330
1F
100
AcDbEntity
  8
0
  6
Continuous
 62
     7
370
    25
100
AcDbCircle
 10
752.4195099708
 20
388.6120387804
 30
0.0
 40
4.70000000000001
100
AcDbArc
 50
180.0
 51
189.4597019682
  0
LINE
  5
16F
330
1F
100
AcDbEntity
  8
0
  6
Continuous
 62
     7
370
    25
100
AcDbLine
 10
811.5195099708
 20
388.6120387804
 30
0.0
 11
811.5195099708
 21
444.0794728348
 31
0.0
  0
LINE
  5
170
330
1F
100
AcDbEntity
  8
0
  6
Continuous
 62
     7
370
    25
100
AcDbLine
 10
747.7195099708
 20
444.0794728348
 30
0.0
 11
747.7195099708
 21
388.6120387804
 31
0.0
  0
LINE
  5
171
330
1F
100
AcDbEntity
  8
0
  6
Continuous
 62
     7
370
    25
100
AcDbLine
 10
747.7834231978
 20
387.839575556
 30
0.0
 11
748.6598597505
 21
382.5794728348
 31
0.0
  0
LINE
  5
172
330
1F
100
AcDbEntity
  8
0
  6
Continuous
 62
     7
370
    25
100
AcDbLine
 10
810.5791601912
 20
382.5794728348
 30
0.0
 11
811.4555967438
 21
387.839575556
 31
0.0
  0
ARC
  5
173
330
1F
100
AcDbEntity
  8
0
  6
Continuous
 62
     7
370
    25
100
AcDbCircle
 10
234.0195099708
 20
444.0794728348
 30
0.0
 40
1.5
100
AcDbArc
 50
90.0
 51
180.0
  0
ARC
  5
174
330
1F
100
AcDbEntity
  8
0
  6
Continuous
 62
     7
370
    25
100
AcDbCircle
 10
167.2195099708
 20
444.0794728348
 30
0.0
 40
1.5
100
AcDbArc
 50
0.0
 51
90.0
  0
ARC
  5
175
330
1F
100
AcDbEntity
  8
0
  6
Continuous
 62
     7
370
    25
100
AcDbCircle
 10
227.8195099708
 20
388.6120387804
 30
0.0
 40
4.70000000000001
100
AcDbArc
 50
350.5402980318
 51
0.0
  0
ARC
  5
176
330
1F
100
AcDbEntity
  8
0
  6
Continuous
 62
     7
370
    25
100
AcDbCircle
 10
173.4195099708
 20
388.6120387804
 30
0.0
 40
4.699999999999982
100
AcDbArc
 50
180.0
 51
189.4597019682
  0
LINE
  5
177
330
1F
100
AcDbEntity
  8
0
  6
Continuous
 62
     7
370
    25
100
AcDbLine
 10
232.5195099708
 20
388.6120387804
 30
0.0
 11
232.5195099708
 21
444.0794728348
 31
0.0
  0
LINE
  5
178
330
1F
100
AcDbEntity
  8
0
  6
Continuous
 62
     7
370
    25
100
AcDbLine
 10
168.7195099708
 20
444.0794728348
 30
0.0
 11
168.7195099708
 21
388.6120387804
 31
0.0
  0
LINE
  5
179
330
1F
100
AcDbEntity
  8
0
  6
Continuous
 62
     7
370
    25
100
AcDbLine
 10
168.7834231978
 20
387.839575556
 30
0.0
 11
169.6598597505
 21
382.5794728348
 31
0.0
  0
LINE
  5
17A
330
1F
100
AcDbEntity
  8
0
  6
Continuous
 62
     7
370
    25
100
AcDbLine
 10
231.5791601912
 20
382.5794728348
 30
0.0
 11
232.4555967438
 21
387.839575556
 31
0.0
  0
LINE
  5
17B
330
1F
100
AcDbEntity
  8
0
  6
Continuous
 62
     7
370
    25
100
AcDbLine
 10
656.2299568281
 20
439.6377504936
 30
0.0
 11
654.0090631136
 21
439.6377504936
 31
0.0
  0
LINE
  5
17C
330
1F
100
AcDbEntity
  8
0
  6
Continuous
 62
     7
370
    25
100
AcDbLine
 10
656.71950997
 20
440.6377504936
 30
0.0
 11
653.2983738131
 21
440.6377504936
 31
0.0
  0
LINE
  5
17D
330
1F
100
AcDbEntity
  8
0
  6
Continuous
 62
     7
370
    25
100
AcDbLine
 10
653.2756060722
 20
441.6377504936
 30
0.0
 11
656.71950997
 21
441.6377504936
 31
0.0
  0
LINE
  5
17E
330
1F
100
AcDbEntity
  8
0
  6
Continuous
 62
     7
370
    25
100
AcDbLine
 10
653.9015500907
 20
442.6377504936
 30
0.0
 11
656.337469851
 21
442.6377504936
 31
0.0
  0
SPLINE
  5
17F
330
1F
100
AcDbEntity
  8
0
  6
Continuous
 62
     7
370
    25
100
AcDbSpline
210
0.0
220
0.0
230
1.0
 70
     8
 71
     3
 72
    12
 73
     8
 74
     0
 42
0.00000001
 43
0.00000001
 40
0.0
 40
0.0
 40
0.0
 40
0.0
 40
0.19289479976573
 40
0.4122214398806983
 40
0.6315552886407674
 40
0.8508890083769833
 40
1.0
 40
1.0
 40
1.0
 40
1.0
 10
637.8695099708406
 20
443.4294728347766
 30
0.0
 10
637.9149398214554
 20
443.6464110952024
 30
0.0
 10
638.0120246493345
 20
444.1100140652491
 30
0.0
 10
638.1610417349974
 20
444.7531438737651
 30
0.0
 10
638.3161648632663
 20
445.2631396888054
 30
0.0
 10
638.454938696262
 20
445.539168527942
 30
0.0
 10
638.5415605533428
 20
445.5678609152785
 30
0.0
 10
638.5766167520271
 20
445.5794728347765
 30
0.0
  0
LINE
  5
180
330
1F
100
AcDbEntity
  8
0
  6
Continuous
 62
     7
370
    25
100
AcDbLine
 10
656.71950997
 20
445.5794728348
 30
0.0
 11
638.576616752
 21
445.5794728348
 31
0.0
  0
ARC
  5
181
330
1F
100
AcDbEntity
  8
0
  6
Continuous
 62
     7
370
    25
100
AcDbCircle
 10
655.1195099708
 20
441.1794728348
 30
0.0
 40
1.900000000000077
100
AcDbArc
 50
90.0
 51
327.3631024474
  0
ARC
  5
182
330
1F
100
AcDbEntity
  8
0
  6
Continuous
 62
     7
370
    25
100
AcDbCircle
 10
655.1195099708
 20
441.1794728348
 30
0.0
 40
1.900000000000016
100
AcDbArc
 50
32.6368975526
 51
90.0
  0
LINE
  5
183
330
1F
100
AcDbEntity
  8
0
  6
Continuous
 62
     7
370
    25
100
AcDbLine
 10
637.8695099708
 20
443.4294728348
 30
0.0
 11
637.8695099708
 21
438.9294728348
 31
0.0
  0
LINE
  5
184
330
1F
100
AcDbEntity
  8
0
  6
Continuous
 62
     7
370
    25
100
AcDbLine
 10
637.8695099708
 20
443.4294728348
 30
0.0
 11
635.7195099708
 21
443.4294728348
 31
0.0
  0
LINE
  5
185
330
1F
100
AcDbEntity
  8
0
  6
Continuous
 62
     7
370
    25
100
AcDbLine
 10
637.8695099708
 20
438.9294728348
 30
0.0
 11
635.7195099708
 21
438.9294728348
 31
0.0
  0
LINE
  5
186
330
1F
100
AcDbEntity
  8
0
  6
Continuous
 62
     7
370
    25
100
AcDbLine
 10
635.7195099708
 20
443.4294728348
 30
0.0
 11
635.7195099708
 21
438.9294728348
 31
0.0
  0
LINE
  5
187
330
1F
100
AcDbEntity
  8
0
  6
Continuous
 62
     7
370
    25
100
AcDbLine
 10
638.576616752
 20
436.7794728348
 30
0.0
 11
656.71950997
 21
436.7794728348
 31
0.0
  0
SPLINE
  5
188
330
1F
100
AcDbEntity
  8
0
  6
Continuous
 62
     7
370
    25
100
AcDbSpline
210
0.0
220
0.0
230
1.0
 70
     8
 71
     3
 72
    12
 73
     8
 74
     0
 42
0.00000001
 43
0.00000001
 40
0.0
 40
0.0
 40
0.0
 40
0.0
 40
0.1928947997658704
 40
0.4122214398808855
 40
0.6315552886410105
 40
0.8508890083772687
 40
1.0
 40
1.0
 40
1.0
 40
1.0
 10
638.5766167520271
 20
436.7794728347766
 30
0.0
 10
638.5311869014123
 20
436.7987265368043
 30
0.0
 10
638.4341020735334
 20
436.8398722223413
 30
0.0
 10
638.2850849878703
 20
437.18337199028
 30
0.0
 10
638.1299618596015
 20
437.7294691603898
 30
0.0
 10
637.991188026606
 20
438.3484041982369
 30
0.0
 10
637.9045661695247
 20
438.7620633750873
 30
0.0
 10
637.8695099708406
 20
438.9294728347766
 30
0.0
  0
SPLINE
  5
189
330
1F
100
AcDbEntity
  8
0
  6
Continuous
 62
     7
370
    25
100
AcDbSpline
210
0.0
220
0.0
230
1.0
 70
     8
 71
     3
 72
    12
 73
     8
 74
     0
 42
0.00000001
 43
0.00000001
 40
0.0
 40
0.0
 40
0.0
 40
0.0
 40
0.2241743151500278
 40
0.448391002587157
 40
0.6726078467288251
 40
0.8968244803947473
 40
1.0
 40
1.0
 40
1.0
 40
1.0
 10
636.3695099708406
 20
438.9294728347766
 30
0.0
 10
636.3876026148054
 20
438.7533858503915
 30
0.0
 10
636.4237913225145
 20
438.4011785985567
 30
0.0
 10
636.705124691794
 20
437.9371854139472
 30
0.0
 10
637.1159687107862
 20
437.597304598546
 30
0.0
 10
637.5327393106596
 20
437.4459539218582
 30
0.0
 10
637.7888107218237
 20
437.4334221436319
 30
0.0
 10
637.8695099708402
 20
437.4294728347766
 30
0.0
  0
LINE
  5
18A
330
1F
100
AcDbEntity
  8
0
  6
Continuous
 62
     7
370
    25
100
AcDbLine
 10
637.8695099708
 20
436.7794728348
 30
0.0
 11
637.8695099708
 21
437.4294728348
 31
0.0
  0
SPLINE
  5
18B
330
1F
100
AcDbEntity
  8
0
  6
Continuous
 62
     7
370
    25
100
AcDbSpline
210
0.0
220
0.0
230
1.0
 70
     8
 71
     3
 72
    12
 73
     8
 74
     0
 42
0.00000001
 43
0.00000001
 40
0.0
 40
0.0
 40
0.0
 40
0.0
 40
0.1928947997658385
 40
0.4122214398807708
 40
0.6315552886408176
 40
0.8508890083769898
 40
1.0
 40
1.0
 40
1.0
 40
1.0
 10
635.7195099708375
 20
438.9294728347766
 30
0.0
 10
635.7387636728662
 20
438.7125345743507
 30
0.0
 10
635.7799093584056
 20
438.2489316043042
 30
0.0
 10
636.1234091263428
 20
437.605801795788
 30
0.0
 10
636.6695062964527
 20
437.0958059807478
 30
0.0
 10
637.2884413342998
 20
436.8197771416112
 30
0.0
 10
637.7021005111505
 20
436.7910847542747
 30
0.0
 10
637.8695099708402
 20
436.7794728347766
 30
0.0
  0
LINE
  5
18C
330
1F
100
AcDbEntity
  8
0
  6
Continuous
 62
     7
370
    25
100
AcDbLine
 10
637.8695099708
 20
445.5794728348
 30
0.0
 11
637.8695099708
 21
444.9294728348
 31
0.0
  0
SPLINE
  5
18D
330
1F
100
AcDbEntity
  8
0
  6
Continuous
 62
     7
370
    25
100
AcDbSpline
210
0.0
220
0.0
230
1.0
 70
     8
 71
     3
 72
    12
 73
     8
 74
     0
 42
0.00000001
 43
0.00000001
 40
0.0
 40
0.0
 40
0.0
 40
0.0
 40
0.2241743151499807
 40
0.4483910025871109
 40
0.6726078467287614
 40
0.8968244803946841
 40
1.0
 40
1.0
 40
1.0
 40
1.0
 10
637.8695099708402
 20
444.9294728347765
 30
0.0
 10
637.6934229864553
 20
444.9113801908116
 30
0.0
 10
637.3412157346204
 20
444.8751914831024
 30
0.0
 10
636.8772225500111
 20
444.5938581138228
 30
0.0
 10
636.5373417346099
 20
444.1830140948308
 30
0.0
 10
636.385991057922
 20
443.7662434949575
 30
0.0
 10
636.3734592796958
 20
443.5101720837932
 30
0.0
 10
636.3695099708407
 20
443.4294728347765
 30
0.0
  0
SPLINE
  5
18E
330
1F
100
AcDbEntity
  8
0
  6
Continuous
 62
     7
370
    25
100
AcDbSpline
210
0.0
220
0.0
230
1.0
 70
     8
 71
     3
 72
    12
 73
     8
 74
     0
 42
0.00000001
 43
0.00000001
 40
0.0
 40
0.0
 40
0.0
 40
0.0
 40
0.1928947997656964
 40
0.4122214398806577
 40
0.6315552886406973
 40
0.8508890083768987
 40
1.0
 40
1.0
 40
1.0
 40
1.0
 10
637.8695099708405
 20
445.5794728347765
 30
0.0
 10
637.6525717104147
 20
445.560219132749
 30
0.0
 10
637.188968740368
 20
445.5190734472121
 30
0.0
 10
636.545838931852
 20
445.175573679274
 30
0.0
 10
636.0358431168117
 20
444.6294765091645
 30
0.0
 10
635.7598142776749
 20
444.0105414713173
 30
0.0
 10
635.7311218903385
 20
443.5968822944664
 30
0.0
 10
635.7195099708406
 20
443.4294728347765
 30
0.0
  0
LINE
  5
18F
330
1F
100
AcDbEntity
  8
0
  6
Continuous
 62
     7
370
    25
100
AcDbLine
 10
638.223628557
 20
444.9294728348
 30
0.0
 11
637.8695099708
 21
444.9294728348
 31
0.0
  0
LINE
  5
190
330
1F
100
AcDbEntity
  8
0
  6
Continuous
 62
     7
370
    25
100
AcDbLine
 10
638.576616752
 20
445.5794728348
 30
0.0
 11
637.8695099708
 21
445.5794728348
 31
0.0
  0
LINE
  5
191
330
1F
100
AcDbEntity
  8
0
  6
Continuous
 62
     7
370
    25
100
AcDbLine
 10
637.8695099708
 20
437.4294728348
 30
0.0
 11
638.2233058177
 21
437.4294728348
 31
0.0
  0
LINE
  5
192
330
1F
100
AcDbEntity
  8
0
  6
Continuous
 62
     7
370
    25
100
AcDbLine
 10
637.8695099708
 20
436.7794728348
 30
0.0
 11
638.576616752
 21
436.7794728348
 31
0.0
  0
LINE
  5
193
330
1F
100
AcDbEntity
  8
0
  6
Continuous
 62
     7
370
    25
100
AcDbLine
 10
656.2299568281
 20
442.7211951759
 30
0.0
 11
654.0090631136
 21
442.7211951759
 31
0.0
  0
LINE
  5
194
330
1F
100
AcDbEntity
  8
0
  6
Continuous
 62
     7
370
    25
100
AcDbLine
 10
655.937469851
 20
442.6377504936
 30
0.0
 11
655.8299568281
 21
442.7211951759
 31
0.0
  0
LINE
  5
195
330
1F
100
AcDbEntity
  8
0
  6
Continuous
 62
     7
370
    25
100
AcDbLine
 10
90.6343244809
 20
725.4794728348
 30
0.0
 11
105.6343244809
 21
725.4794728348
 31
0.0
  0
LINE
  5
196
330
1F
100
AcDbEntity
  8
0
  6
Continuous
 62
     7
370
    25
100
AcDbLine
 10
526.5468707778
 20
672.7294728348
 30
0.0
 11
529.9217781839
 21
672.7294728348
 31
0.0
  0
CIRCLE
  5
197
330
1F
100
AcDbEntity
  8
0
  6
Continuous
 62
     7
370
    25
100
AcDbCircle
 10
528.2343244809
 20
673.9794728348
 30
0.0
 40
2.524999999999977
  0
CIRCLE
  5
198
330
1F
100
AcDbEntity
  8
0
  6
Continuous
 62
     7
370
    25
100
AcDbCircle
 10
528.2343244809
 20
673.9794728348
 30
0.0
 40
2.100000000000023
  0
CIRCLE
  5
199
330
1F
100
AcDbEntity
  8
0
  6
Continuous
 62
     7
370
    25
100
AcDbCircle
 10
138.2343244809
 20
673.9794728348
 30
0.0
 40
2.525000000000006
  0
CIRCLE
  5
19A
330
1F
100
AcDbEntity
  8
0
  6
Continuous
 62
     7
370
    25
100
AcDbCircle
 10
138.2343244809
 20
673.9794728348
 30
0.0
 40
2.099999999999994
  0
ARC
  5
19B
330
1F
100
AcDbEntity
  8
0
  6
Continuous
 62
     7
370
    25
100
AcDbCircle
 10
952.3256612377
 20
668.7067945408
 30
0.0
 40
0.2000000000000921
100
AcDbArc
 50
335.0000000001
 51
16.7043135852
  0
ARC
  5
19C
330
1F
100
AcDbEntity
  8
0
  6
Continuous
 62
     7
370
    25
100
AcDbCircle
 10
948.268525925
 20
660.0062397852
 30
0.0
 40
0.200000000000044
100
AcDbArc
 50
293.2956864083
 51
335.0000000001
  0
LINE
  5
19D
330
1F
100
AcDbEntity
  8
0
  6
Continuous
 62
     7
370
    25
100
AcDbLine
 10
62.6343244808
 20
709.7294728348
 30
0.0
 11
60.6343244808
 21
709.7294728348
 31
0.0
  0
LINE
  5
19E
330
1F
100
AcDbEntity
  8
0
  6
Continuous
 62
     7
370
    25
100
AcDbLine
 10
62.6343244808
 20
698.2294728348
 30
0.0
 11
62.6343244808
 21
709.7294728348
 31
0.0
  0
LINE
  5
19F
330
1F
100
AcDbEntity
  8
0
  6
Continuous
 62
     7
370
    25
100
AcDbLine
 10
60.6343244808
 20
698.2294728348
 30
0.0
 11
62.6343244808
 21
698.2294728348
 31
0.0
  0
LINE
  5
1A0
330
1F
100
AcDbEntity
  8
0
  6
Continuous
 62
     7
370
    25
100
AcDbLine
 10
60.6343244808
 20
698.2294728348
 30
0.0
 11
60.6343244808
 21
709.7294728348
 31
0.0
  0
LINE
  5
1A1
330
1F
100
AcDbEntity
  8
0
  6
Continuous
 62
     7
370
    25
100
AcDbLine
 10
131.3843244808
 20
711.9794728348
 30
0.0
 11
131.3843244808
 21
713.9794728348
 31
0.0
  0
LINE
  5
1A2
330
1F
100
AcDbEntity
  8
0
  6
Continuous
 62
     7
370
    25
100
AcDbLine
 10
64.8843244808
 20
711.9794728348
 30
0.0
 11
131.3843244808
 21
711.9794728348
 31
0.0
  0
LINE
  5
1A3
330
1F
100
AcDbEntity
  8
0
  6
Continuous
 62
     7
370
    25
100
AcDbLine
 10
64.8843244808
 20
713.9794728348
 30
0.0
 11
64.8843244808
 21
711.9794728348
 31
0.0
  0
LINE
  5
1A4
330
1F
100
AcDbEntity
  8
0
  6
Continuous
 62
     7
370
    25
100
AcDbLine
 10
64.8843244808
 20
713.9794728348
 30
0.0
 11
131.3843244808
 21
713.9794728348
 31
0.0
  0
ARC
  5
1A5
330
1F
100
AcDbEntity
  8
0
  6
Continuous
 62
     7
370
    25
100
AcDbCircle
 10
64.8843244808
 20
709.7294728348
 30
0.0
 40
2.25
100
AcDbArc
 50
90.0
 51
180.0
  0
ARC
  5
1A6
330
1F
100
AcDbEntity
  8
0
  6
Continuous
 62
     7
370
    25
100
AcDbCircle
 10
64.8843244808
 20
709.7294728348
 30
0.0
 40
4.25
100
AcDbArc
 50
90.0
 51
180.0
  0
ARC
  5
1A7
330
1F
100
AcDbEntity
  8
0
  6
Continuous
 62
     7
370
    25
100
AcDbCircle
 10
64.8843244808
 20
698.2294728348
 30
0.0
 40
4.249999999999979
100
AcDbArc
 50
180.0
 51
270.0
  0
LINE
  5
1A8
330
1F
100
AcDbEntity
  8
0
  6
Continuous
 62
     7
370
    25
100
AcDbLine
 10
64.8843244808
 20
695.9794728348
 30
0.0
 11
64.8843244808
 21
693.9794728348
 31
0.0
  0
ARC
  5
1A9
330
1F
100
AcDbEntity
  8
0
  6
Continuous
 62
     7
370
    25
100
AcDbCircle
 10
64.8843244808
 20
698.2294728348
 30
0.0
 40
2.249999999999979
100
AcDbArc
 50
180.0
 51
270.0
  0
LINE
  5
1AA
330
1F
100
AcDbEntity
  8
0
  6
Continuous
 62
     7
370
    25
100
AcDbLine
 10
948.6343244808
 20
693.9794728348
 30
0.0
 11
948.6343244808
 21
695.9794728348
 31
0.0
  0
LINE
  5
1AB
330
1F
100
AcDbEntity
  8
0
  6
Continuous
 62
     7
370
    25
100
AcDbLine
 10
137.8843244808
 20
693.9794728348
 30
0.0
 11
948.6343244808
 21
693.9794728348
 31
0.0
  0
LINE
  5
1AC
330
1F
100
AcDbEntity
  8
0
  6
Continuous
 62
     7
370
    25
100
AcDbLine
 10
137.8843244808
 20
695.9794728348
 30
0.0
 11
137.8843244808
 21
693.9794728348
 31
0.0
  0
LINE
  5
1AD
330
1F
100
AcDbEntity
  8
0
  6
Continuous
 62
     7
370
    25
100
AcDbLine
 10
137.8843244808
 20
695.9794728348
 30
0.0
 11
948.6343244808
 21
695.9794728348
 31
0.0
  0
LINE
  5
1AE
330
1F
100
AcDbEntity
  8
0
  6
Continuous
 62
     7
370
    25
100
AcDbLine
 10
73.6343244808
 20
695.9794728348
 30
0.0
 11
64.8843244808
 21
695.9794728348
 31
0.0
  0
LINE
  5
1AF
330
1F
100
AcDbEntity
  8
0
  6
Continuous
 62
     7
370
    25
100
AcDbLine
 10
73.6343244808
 20
693.9794728348
 30
0.0
 11
73.6343244808
 21
695.9794728348
 31
0.0
  0
LINE
  5
1B0
330
1F
100
AcDbEntity
  8
0
  6
Continuous
 62
     7
370
    25
100
AcDbLine
 10
73.6343244808
 20
693.9794728348
 30
0.0
 11
64.8843244808
 21
693.9794728348
 31
0.0
  0
LINE
  5
1B1
330
1F
100
AcDbEntity
  8
0
  6
Continuous
 62
     7
370
    25
100
AcDbLine
 10
75.6343244808
 20
695.9794728348
 30
0.0
 11
75.6343244808
 21
693.9794728348
 31
0.0
  0
LINE
  5
1B2
330
1F
100
AcDbEntity
  8
0
  6
Continuous
 62
     7
370
    25
100
AcDbLine
 10
75.6343244808
 20
693.9794728348
 30
0.0
 11
73.6343244808
 21
693.9794728348
 31
0.0
  0
LINE
  5
1B3
330
1F
100
AcDbEntity
  8
0
  6
Continuous
 62
     7
370
    25
100
AcDbLine
 10
73.6343244808
 20
695.9794728348
 30
0.0
 11
75.6343244808
 21
695.9794728348
 31
0.0
  0
ARC
  5
1B4
330
1F
100
AcDbEntity
  8
0
  6
Continuous
 62
     7
370
    25
100
AcDbCircle
 10
131.3843244808
 20
709.7294728348
 30
0.0
 40
4.249999999999972
100
AcDbArc
 50
360.0
 51
90.0
  0
LINE
  5
1B5
330
1F
100
AcDbEntity
  8
0
  6
Continuous
 62
     7
370
    25
100
AcDbLine
 10
135.6343244808
 20
709.7294728348
 30
0.0
 11
133.6343244808
 21
709.7294728348
 31
0.0
  0
ARC
  5
1B6
330
1F
100
AcDbEntity
  8
0
  6
Continuous
 62
     7
370
    25
100
AcDbCircle
 10
131.3843244808
 20
709.7294728348
 30
0.0
 40
2.249999999999972
100
AcDbArc
 50
360.0
 51
90.0
  0
LINE
  5
1B7
330
1F
100
AcDbEntity
  8
0
  6
Continuous
 62
     7
370
    25
100
AcDbLine
 10
133.6343244808
 20
698.2294728348
 30
0.0
 11
135.6343244808
 21
698.2294728348
 31
0.0
  0
LINE
  5
1B8
330
1F
100
AcDbEntity
  8
0
  6
Continuous
 62
     7
370
    25
100
AcDbLine
 10
135.6343244808
 20
709.7294728348
 30
0.0
 11
135.6343244808
 21
698.2294728348
 31
0.0
  0
LINE
  5
1B9
330
1F
100
AcDbEntity
  8
0
  6
Continuous
 62
     7
370
    25
100
AcDbLine
 10
133.6343244808
 20
709.7294728348
 30
0.0
 11
133.6343244808
 21
698.2294728348
 31
0.0
  0
ARC
  5
1BA
330
1F
100
AcDbEntity
  8
0
  6
Continuous
 62
     7
370
    25
100
AcDbCircle
 10
137.8843244808
 20
698.2294728348
 30
0.0
 40
2.25
100
AcDbArc
 50
180.0
 51
270.0
  0
ARC
  5
1BB
330
1F
100
AcDbEntity
  8
0
  6
Continuous
 62
     7
370
    25
100
AcDbCircle
 10
137.8843244808
 20
698.2294728348
 30
0.0
 40
4.25
100
AcDbArc
 50
180.0
 51
270.0
  0
ARC
  5
1BC
330
1F
100
AcDbEntity
  8
0
  6
Continuous
 62
     7
370
    25
100
AcDbCircle
 10
948.6343244808
 20
683.9794728348
 30
0.0
 40
12.0
100
AcDbArc
 50
335.0
 51
90.0
  0
LINE
  5
1BD
330
1F
100
AcDbEntity
  8
0
  6
Continuous
 62
     7
370
    25
100
AcDbLine
 10
959.5100179253
 20
678.9080536939
 30
0.0
 11
957.6974023512
 21
679.7532902174
 31
0.0
  0
ARC
  5
1BE
330
1F
100
AcDbEntity
  8
0
  6
Continuous
 62
     7
370
    25
100
AcDbCircle
 10
948.6343244808
 20
683.9794728348
 30
0.0
 40
10.0
100
AcDbArc
 50
335.0
 51
90.0
  0
LINE
  5
1BF
330
1F
100
AcDbEntity
  8
0
  6
Continuous
 62
     7
370
    25
100
AcDbLine
 10
942.080336262
 20
646.2623839111
 30
0.0
 11
943.8929518361
 21
645.4171473876
 31
0.0
  0
LINE
  5
1C0
330
1F
100
AcDbEntity
  8
0
  6
Continuous
 62
     7
370
    25
100
AcDbLine
 10
959.5100179253
 20
678.9080536939
 30
0.0
 11
943.8929518361
 21
645.4171473876
 31
0.0
  0
LINE
  5
1C1
330
1F
100
AcDbEntity
  8
0
  6
Continuous
 62
     7
370
    25
100
AcDbLine
 10
957.6974023512
 20
679.7532902174
 30
0.0
 11
942.080336262
 21
646.2623839111
 31
0.0
  0
ARC
  5
1C2
330
1F
100
AcDbEntity
  8
0
  6
Continuous
 62
     7
370
    25
100
AcDbCircle
 10
940.0411437412
 20
647.213275
 30
0.0
 40
4.250000000000176
100
AcDbArc
 50
295.0
 51
335.0
  0
LINE
  5
1C3
330
1F
100
AcDbEntity
  8
0
  6
Continuous
 62
     7
370
    25
100
AcDbLine
 10
941.8372713536
 20
643.3614669051
 30
0.0
 11
940.9920348301
 21
645.1740824792
 31
0.0
  0
ARC
  5
1C4
330
1F
100
AcDbEntity
  8
0
  6
Continuous
 62
     7
370
    25
100
AcDbCircle
 10
940.0411437412
 20
647.213275
 30
0.0
 40
2.249999999999943
100
AcDbArc
 50
295.0
 51
335.0
  0
LINE
  5
1C5
330
1F
100
AcDbEntity
  8
0
  6
Continuous
 62
     7
370
    25
100
AcDbLine
 10
941.8372713536
 20
643.3614669051
 30
0.0
 11
921.7597202955
 21
633.9991510897
 31
0.0
  0
LINE
  5
1C6
330
1F
100
AcDbEntity
  8
0
  6
Continuous
 62
     7
370
    25
100
AcDbLine
 10
920.914483772
 20
635.8117666638
 30
0.0
 11
921.7597202955
 21
633.9991510897
 31
0.0
  0
LINE
  5
1C7
330
1F
100
AcDbEntity
  8
0
  6
Continuous
 62
     7
370
    25
100
AcDbLine
 10
940.9920348301
 20
645.1740824792
 30
0.0
 11
920.914483772
 21
635.8117666638
 31
0.0
  0
LINE
  5
1C8
330
1F
100
AcDbEntity
  8
0
  6
Continuous
 62
     7
370
    25
100
AcDbLine
 10
919.9471047214
 20
633.1539145662
 30
0.0
 11
919.1018681979
 21
634.9665301403
 31
0.0
  0
LINE
  5
1C9
330
1F
100
AcDbEntity
  8
0
  6
Continuous
 62
     7
370
    25
100
AcDbLine
 10
919.1018681979
 20
634.9665301403
 30
0.0
 11
920.914483772
 21
635.8117666638
 31
0.0
  0
LINE
  5
1CA
330
1F
100
AcDbEntity
  8
0
  6
Continuous
 62
     7
370
    25
100
AcDbLine
 10
921.7597202955
 20
633.9991510897
 30
0.0
 11
919.9471047214
 21
633.1539145662
 31
0.0
  0
LINE
  5
1CB
330
1F
100
AcDbEntity
  8
0
  6
Continuous
 62
     7
370
    25
100
AcDbLine
 10
526.1343244809
 20
673.9794728348
 30
0.0
 11
530.3343244809
 21
673.9794728348
 31
0.0
  0
LINE
  5
1CC
330
1F
100
AcDbEntity
  8
0
  6
Continuous
 62
     7
370
    25
100
AcDbLine
 10
952.9717772943
 20
539.5639438771
 30
0.0
 11
925.5015902812
 21
598.4739500344
 31
0.0
  0
LINE
  5
1CD
330
1F
100
AcDbEntity
  8
0
  6
Continuous
 62
     7
370
    25
100
AcDbLine
 10
938.2838025431
 20
594.7244232107
 30
0.0
 11
936.2551411985
 21
599.0749015037
 31
0.0
  0
SPLINE
  5
1CE
330
1F
100
AcDbEntity
  8
0
  6
Continuous
 62
     7
370
    25
100
AcDbSpline
210
0.0
220
0.0
230
1.0
 70
     8
 71
     3
 72
     9
 73
     5
 74
     0
 42
0.00000001
 43
0.00000001
 40
0.0
 40
0.0
 40
0.0
 40
0.0
 40
0.5209744652335221
 40
1.0
 40
1.0
 40
1.0
 40
1.0
 10
938.1809603175849
 20
593.4575526983605
 30
0.0
 10
938.1034017734085
 20
593.6903489400019
 30
0.0
 10
937.9545297089364
 20
594.1371966401805
 30
0.0
 10
938.1771579370994
 20
594.5342327675005
 30
0.0
 10
938.2838025431497
 20
594.7244232107116
 30
0.0
  0
LINE
  5
1CF
330
1F
100
AcDbEntity
  8
0
  6
Continuous
 62
     7
370
    25
100
AcDbLine
 10
957.2791359486
 20
552.5013828886
 30
0.0
 11
938.1809603176
 21
593.4575526984
 31
0.0
  0
SPLINE
  5
1D0
330
1F
100
AcDbEntity
  8
0
  6
Continuous
 62
     7
370
    25
100
AcDbSpline
210
0.0
220
0.0
230
1.0
 70
     8
 71
     3
 72
     9
 73
     5
 74
     0
 42
0.00000001
 43
0.00000001
 40
0.0
 40
0.0
 40
0.0
 40
0.0
 40
0.4790255347664823
 40
0.9999999999999999
 40
0.9999999999999999
 40
0.9999999999999999
 40
0.9999999999999999
 10
958.3157207730608
 20
551.7658359355866
 30
0.0
 10
958.1014766094958
 20
551.8063934881102
 30
0.0
 10
957.6542266238148
 20
551.8910602742835
 30
0.0
 10
957.4076145446437
 20
552.2923310570998
 30
0.0
 10
957.2791359485773
 20
552.5013828885913
 30
0.0
  0
LINE
  5
1D1
330
1F
100
AcDbEntity
  8
0
  6
Continuous
 62
     7
370
    25
100
AcDbLine
 10
960.3443821177
 20
547.4153576426
 30
0.0
 11
958.3157207731
 21
551.7658359356
 31
0.0
  0
LINE
  5
1D2
330
1F
100
AcDbEntity
  8
0
  6
Continuous
 62
     7
370
    25
100
AcDbLine
 10
930.9125210973
 20
594.6540195843
 30
0.0
 11
930.6489446171
 21
595.2271685289
 31
0.0
  0
LINE
  5
1D3
330
1F
100
AcDbEntity
  8
0
  6
Continuous
 62
     7
370
    25
100
AcDbLine
 10
931.7960925372
 20
594.5002964191
 30
0.0
 11
930.9125210973
 21
594.6540195843
 31
0.0
  0
LINE
  5
1D4
330
1F
100
AcDbEntity
  8
0
  6
Continuous
 62
     7
370
    25
100
AcDbLine
 10
935.1979972686
 20
595.2939957347
 30
0.0
 11
931.605531511
 21
594.9308481123
 31
0.0
  0
SPLINE
  5
1D5
330
1F
100
AcDbEntity
  8
0
  6
Continuous
 62
     7
370
    25
100
AcDbSpline
210
0.0
220
0.0
230
1.0
 70
     8
 71
     3
 72
    10
 73
     6
 74
     0
 42
0.00000001
 43
0.00000001
 40
0.0
 40
0.0
 40
0.0
 40
0.0
 40
0.3346433724620287
 40
0.6687837564500733
 40
1.0
 40
1.0
 40
1.0
 40
1.0
 10
938.610177456729
 20
580.9575889305811
 30
0.0
 10
938.575258101294
 20
580.9448590802168
 30
0.0
 10
938.5054718762484
 20
580.9194185131948
 30
0.0
 10
938.4134772321408
 20
580.8606901907775
 30
0.0
 10
938.3683878230664
 20
580.8074553469711
 30
0.0
 10
938.3459421990515
 20
580.780954904559
 30
0.0
  0
SPLINE
  5
1D6
330
1F
100
AcDbEntity
  8
0
  6
Continuous
 62
     7
370
    25
100
AcDbSpline
210
0.0
220
0.0
230
1.0
 70
     8
 71
     3
 72
    10
 73
     6
 74
     0
 42
0.00000001
 43
0.00000001
 40
0.0
 40
0.0
 40
0.0
 40
0.0
 40
0.5008562465319193
 40
0.7509053023033311
 40
1.0
 40
1.0
 40
1.0
 40
1.0
 10
940.1712634674126
 20
580.6327824388799
 30
0.0
 10
939.9193945805091
 20
580.7397641659888
 30
0.0
 10
939.5417818743271
 20
580.900155788719
 30
0.0
 10
939.0008532515928
 20
581.0179294325844
 30
0.0
 10
938.7402366228512
 20
580.9776767770182
 30
0.0
 10
938.610177456729
 20
580.9575889305811
 30
0.0
  0
LINE
  5
1D7
330
1F
100
AcDbEntity
  8
0
  6
Continuous
 62
     7
370
    25
100
AcDbLine
 10
941.9750888665
 20
579.8287615393
 30
0.0
 11
940.1712634674
 21
580.6327824389
 31
0.0
  0
LINE
  5
1D8
330
1F
100
AcDbEntity
  8
0
  6
Continuous
 62
     7
370
    25
100
AcDbLine
 10
942.3393772174
 20
579.9415282076
 30
0.0
 11
941.9750888665
 21
579.8287615393
 31
0.0
  0
LINE
  5
1D9
330
1F
100
AcDbEntity
  8
0
  6
Continuous
 62
     7
370
    25
100
AcDbLine
 10
941.0456982581
 20
581.0218000349
 30
0.0
 11
940.4061206076
 21
582.3615544649
 31
0.0
  0
SPLINE
  5
1DA
330
1F
100
AcDbEntity
  8
0
  6
Continuous
 62
     7
370
    25
100
AcDbSpline
210
0.0
220
0.0
230
1.0
 70
     8
 71
     3
 72
    10
 73
     6
 74
     0
 42
0.00000001
 43
0.00000001
 40
0.0
 40
0.0
 40
0.0
 40
0.0
 40
0.5039060632969677
 40
0.7583709199064953
 40
1.0
 40
1.0
 40
1.0
 40
1.0
 10
937.5878165852329
 20
580.0979335781731
 30
0.0
 10
937.529403744894
 20
580.254417876182
 30
0.0
 10
937.4414933133897
 20
580.4899243518443
 30
0.0
 10
937.448233736928
 20
580.8062808397641
 30
0.0
 10
937.495746896859
 20
580.9505235388465
 30
0.0
 10
937.5188888066406
 20
581.0207788435596
 30
0.0
  0
SPLINE
  5
1DB
330
1F
100
AcDbEntity
  8
0
  6
Continuous
 62
     7
370
    25
100
AcDbSpline
210
0.0
220
0.0
230
1.0
 70
     8
 71
     3
 72
    13
 73
     9
 74
     0
 42
0.00000001
 43
0.00000001
 40
0.0
 40
0.0
 40
0.0
 40
0.0
 40
0.2498872707047594
 40
0.3761478975060029
 40
0.5002530850638185
 40
0.6262594816484536
 40
0.7505703531807681
 40
1.0
 40
1.0
 40
1.0
 40
1.0
 10
939.580900543294
 20
579.2084800179614
 30
0.0
 10
939.3899184445752
 20
579.1714789285164
 30
0.0
 10
939.1024387554666
 20
579.1157822859426
 30
0.0
 10
938.7019666296393
 20
579.1688461281138
 30
0.0
 10
938.410790499207
 20
579.2647492688924
 30
0.0
 10
938.1429794255392
 20
579.4127481916438
 30
0.0
 10
937.8290404731795
 20
579.6737055565048
 30
0.0
 10
937.6843686869504
 20
579.9281323721308
 30
0.0
 10
937.5878165852329
 20
580.0979335781731
 30
0.0
  0
SPLINE
  5
1DC
330
1F
100
AcDbEntity
  8
0
  6
Continuous
 62
     7
370
    25
100
AcDbSpline
210
0.0
220
0.0
230
1.0
 70
     8
 71
     3
 72
    13
 73
     9
 74
     0
 42
0.00000001
 43
0.00000001
 40
0.0
 40
0.0
 40
0.0
 40
0.0
 40
0.2505411126431542
 40
0.5000870740452212
 40
0.6246185037112045
 40
0.7501663828253001
 40
0.8750979813118593
 40
1.0
 40
1.0
 40
1.0
 40
1.0
 10
946.0121157908202
 20
565.9894959075618
 30
0.0
 10
945.9687644811503
 20
566.0637858881831
 30
0.0
 10
945.8822340535487
 20
566.2120707690472
 30
0.0
 10
945.738603155177
 20
566.3735954998302
 30
0.0
 10
945.5922599978484
 20
566.452613861711
 30
0.0
 10
945.4732111817996
 20
566.4818004635454
 30
0.0
 10
945.3497854185747
 20
566.4792377927523
 30
0.0
 10
945.2746513011649
 20
566.4465520234834
 30
0.0
 10
945.2370886903244
 20
566.4302110738136
 30
0.0
  0
SPLINE
  5
1DD
330
1F
100
AcDbEntity
  8
0
  6
Continuous
 62
     7
370
    25
100
AcDbSpline
210
0.0
220
0.0
230
1.0
 70
     8
 71
     3
 72
    13
 73
     9
 74
     0
 42
0.00000001
 43
0.00000001
 40
0.0
 40
0.0
 40
0.0
 40
0.0
 40
0.3312834015200044
 40
0.4974462097378489
 40
0.6636161907934861
 40
0.8318079986308122
 40
0.9959290552042467
 40
1.0
 40
1.0
 40
1.0
 40
1.0
 10
947.5964408042416
 20
567.2421959917737
 30
0.0
 10
947.5535504738241
 20
567.3188823835102
 30
0.0
 10
947.4891475118806
 20
567.4340325985006
 30
0.0
 10
947.3554459692872
 20
567.5388435733145
 30
0.0
 10
947.2440674870584
 20
567.5985901824608
 30
0.0
 10
947.1256113540793
 20
567.6267005842885
 30
0.0
 10
947.0404248285635
 20
567.6437341632862
 30
0.0
 10
947.0009350381689
 20
567.6314871696602
 30
0.0
 10
946.9999792212728
 20
567.6311907415628
 30
0.0
  0
SPLINE
  5
1DE
330
1F
100
AcDbEntity
  8
0
  6
Continuous
 62
     7
370
    25
100
AcDbSpline
210
0.0
220
0.0
230
1.0
 70
     8
 71
     3
 72
    12
 73
     8
 74
     0
 42
0.00000001
 43
0.00000001
 40
0.0
 40
0.0
 40
0.0
 40
0.0
 40
0.2504673576850814
 40
0.4998762737682786
 40
0.6238730647373698
 40
0.7503478385447772
 40
0.9999999999999999
 40
0.9999999999999999
 40
0.9999999999999999
 40
0.9999999999999999
 10
947.3328295311909
 20
566.2976368894631
 30
0.0
 10
947.3981379074914
 20
566.3542789166412
 30
0.0
 10
947.5284786756167
 20
566.4673236093555
 30
0.0
 10
947.6397727812122
 20
566.6671058761427
 30
0.0
 10
947.6757135991195
 20
566.8451577125329
 30
0.0
 10
947.6764557561894
 20
567.0291221164225
 30
0.0
 10
947.6283624612724
 20
567.1571909895132
 30
0.0
 10
947.5964408042415
 20
567.2421959917737
 30
0.0
  0
LINE
  5
1DF
330
1F
100
AcDbEntity
  8
0
  6
Continuous
 62
     7
370
    25
100
AcDbLine
 10
947.6705777279
 20
565.5473033552
 30
0.0
 11
947.3328295312
 21
566.2976368895
 31
0.0
  0
LINE
  5
1E0
330
1F
100
AcDbEntity
  8
0
  6
Continuous
 62
     7
370
    25
100
AcDbLine
 10
946.4117838597
 20
568.3098684527
 30
0.0
 11
946.8351684698
 21
568.4327291399
 31
0.0
  0
SPLINE
  5
1E1
330
1F
100
AcDbEntity
  8
0
  6
Continuous
 62
     7
370
    25
100
AcDbSpline
210
0.0
220
0.0
230
1.0
 70
     8
 71
     3
 72
    11
 73
     7
 74
     0
 42
0.00000001
 43
0.00000001
 40
0.0
 40
0.0
 40
0.0
 40
0.0
 40
0.2502173648571104
 40
0.5000746179187403
 40
0.7498928579700502
 40
1.0
 40
1.0
 40
1.0
 40
1.0
 10
945.8584186837559
 20
567.0270180374816
 30
0.0
 10
945.8440277393116
 20
567.155097782251
 30
0.0
 10
945.8152665618105
 20
567.4110729399515
 30
0.0
 10
945.910793662256
 20
567.7867466713864
 30
0.0
 10
946.1107502869304
 20
568.1095528727973
 30
0.0
 10
946.311400684162
 20
568.2430708731447
 30
0.0
 10
946.4117838597268
 20
568.3098684526904
 30
0.0
  0
SPLINE
  5
1E2
330
1F
100
AcDbEntity
  8
0
  6
Continuous
 62
     7
370
    25
100
AcDbSpline
210
0.0
220
0.0
230
1.0
 70
     8
 71
     3
 72
    10
 73
     6
 74
     0
 42
0.00000001
 43
0.00000001
 40
0.0
 40
0.0
 40
0.0
 40
0.0
 40
0.4216098544465552
 40
0.8428946066539686
 40
1.0
 40
1.0
 40
1.0
 40
1.0
 10
944.8204138515949
 20
567.1697003861966
 30
0.0
 10
944.8621512261925
 20
567.1895974950106
 30
0.0
 10
944.9455937918092
 20
567.2293763700309
 30
0.0
 10
945.0512793673216
 20
567.2653383339111
 30
0.0
 10
945.1146152806928
 20
567.2640614354593
 30
0.0
 10
945.1318189167846
 20
567.2637145975419
 30
0.0
  0
SPLINE
  5
1E3
330
1F
100
AcDbEntity
  8
0
  6
Continuous
 62
     7
370
    25
100
AcDbSpline
210
0.0
220
0.0
230
1.0
 70
     8
 71
     3
 72
    13
 73
     9
 74
     0
 42
0.00000001
 43
0.00000001
 40
0.0
 40
0.0
 40
0.0
 40
0.0
 40
0.2497230742650172
 40
0.4990813102398145
 40
0.6243742304902075
 40
0.7495787126562621
 40
0.8747901907011353
 40
0.9999999999999999
 40
0.9999999999999999
 40
0.9999999999999999
 40
0.9999999999999999
 10
944.4089165131315
 20
565.4847430720273
 30
0.0
 10
944.3520039057454
 20
565.6361177572404
 30
0.0
 10
944.2382618386694
 20
565.9386459735682
 30
0.0
 10
944.265964234681
 20
566.3559022729377
 30
0.0
 10
944.3624237421789
 20
566.6603570528654
 30
0.0
 10
944.47429518914
 20
566.8703063323017
 30
0.0
 10
944.6282219632998
 20
567.0476351352569
 30
0.0
 10
944.7563501734348
 20
567.1290121499754
 30
0.0
 10
944.8204138515949
 20
567.1697003861966
 30
0.0
  0
SPLINE
  5
1E4
330
1F
100
AcDbEntity
  8
0
  6
Continuous
 62
     7
370
    25
100
AcDbSpline
210
0.0
220
0.0
230
1.0
 70
     8
 71
     3
 72
     9
 73
     5
 74
     0
 42
0.00000001
 43
0.00000001
 40
0.0
 40
0.0
 40
0.0
 40
0.0
 40
0.4996977652840165
 40
1.0
 40
1.0
 40
1.0
 40
1.0
 10
945.169616549969
 20
564.7599833955317
 30
0.0
 10
945.008885652701
 20
564.8367347567957
 30
0.0
 10
944.6872294268089
 20
564.9903303231486
 30
0.0
 10
944.501724861637
 20
565.3198724230257
 30
0.0
 10
944.4089165131315
 20
565.4847430720273
 30
0.0
  0
LINE
  5
1E5
330
1F
100
AcDbEntity
  8
0
  6
Continuous
 62
     7
370
    25
100
AcDbLine
 10
945.5669638176
 20
564.7087742957
 30
0.0
 11
945.16961655
 21
564.7599833955
 31
0.0
  0
LINE
  5
1E6
330
1F
100
AcDbEntity
  8
0
  6
Continuous
 62
     7
370
    25
100
AcDbLine
 10
951.341478663
 20
550.5248763041
 30
0.0
 11
951.0662323598
 21
551.0705747273
 31
0.0
  0
LINE
  5
1E7
330
1F
100
AcDbEntity
  8
0
  6
Continuous
 62
     7
370
    25
100
AcDbLine
 10
953.7298616775
 20
553.4208294759
 30
0.0
 11
954.396697188
 21
554.0095720203
 31
0.0
  0
LINE
  5
1E8
330
1F
100
AcDbEntity
  8
0
  6
Continuous
 62
     7
370
    25
100
AcDbLine
 10
953.0239309231
 20
553.175411819
 30
0.0
 11
953.5958798097
 21
553.680336688
 31
0.0
  0
LINE
  5
1E9
330
1F
100
AcDbEntity
  8
0
  6
Continuous
 62
     7
370
    25
100
AcDbLine
 10
953.1577256753
 20
552.9160321817
 30
0.0
 11
953.0239309231
 21
553.175411819
 31
0.0
  0
LINE
  5
1EA
330
1F
100
AcDbEntity
  8
0
  6
Continuous
 62
     7
370
    25
100
AcDbLine
 10
951.0662323598
 20
551.0705747273
 30
0.0
 11
953.1577256753
 21
552.9160321817
 31
0.0
  0
LINE
  5
1EB
330
1F
100
AcDbEntity
  8
0
  6
Continuous
 62
     7
370
    25
100
AcDbLine
 10
955.2531880964
 20
542.4932555568
 30
0.0
 11
955.083047304
 21
542.839765677
 31
0.0
  0
SPLINE
  5
1EC
330
1F
100
AcDbEntity
  8
0
  6
Continuous
 62
     7
370
    25
100
AcDbSpline
210
0.0
220
0.0
230
1.0
 70
     8
 71
     3
 72
    10
 73
     6
 74
     0
 42
0.00000001
 43
0.00000001
 40
0.0
 40
0.0
 40
0.0
 40
0.0
 40
0.2500089944489874
 40
0.500212347833458
 40
1.0
 40
1.0
 40
1.0
 40
1.0
 10
956.8229769291961
 20
544.300561465612
 30
0.0
 10
956.8298262630179
 20
544.2955698432296
 30
0.0
 10
956.8435302553869
 20
544.2855827179387
 30
0.0
 10
956.9163395548318
 20
544.3186286115218
 30
0.0
 10
956.9975598194984
 20
544.3796489895115
 30
0.0
 10
957.0516843157731
 20
544.4203124524383
 30
0.0
  0
SPLINE
  5
1ED
330
1F
100
AcDbEntity
  8
0
  6
Continuous
 62
     7
370
    25
100
AcDbSpline
210
0.0
220
0.0
230
1.0
 70
     8
 71
     3
 72
    11
 73
     7
 74
     0
 42
0.00000001
 43
0.00000001
 40
0.0
 40
0.0
 40
0.0
 40
0.0
 40
0.2502645261424999
 40
0.5001665460599163
 40
0.7500513729843297
 40
1.0
 40
1.0
 40
1.0
 40
1.0
 10
957.5602625198798
 20
544.9242819372969
 30
0.0
 10
957.5991029859855
 20
544.9721124817526
 30
0.0
 10
957.6767276580831
 20
545.0677042884914
 30
0.0
 10
957.7616009517474
 20
545.1898991666428
 30
0.0
 10
957.8135457496597
 20
545.285397804262
 30
0.0
 10
957.8110040102016
 20
545.3142527631658
 30
0.0
 10
957.8097329782552
 20
545.3286820841802
 30
0.0
  0
LINE
  5
1EE
330
1F
100
AcDbEntity
  8
0
  6
Continuous
 62
     7
370
    25
100
AcDbLine
 10
957.6036606517
 20
544.8042743156
 30
0.0
 11
957.5602625199
 21
544.9242819373
 31
0.0
  0
SPLINE
  5
1EF
330
1F
100
AcDbEntity
  8
0
  6
Continuous
 62
     7
370
    25
100
AcDbSpline
210
0.0
220
0.0
230
1.0
 70
     8
 71
     3
 72
    12
 73
     8
 74
     0
 42
0.00000001
 43
0.00000001
 40
0.0
 40
0.0
 40
0.0
 40
0.0
 40
0.2498390531635417
 40
0.4994863570838955
 40
0.6249250677419098
 40
0.7503431134645424
 40
1.0
 40
1.0
 40
1.0
 40
1.0
 10
957.1536974505217
 20
545.0410062334643
 30
0.0
 10
957.2947806107896
 20
545.1840434737104
 30
0.0
 10
957.5768386512595
 20
545.4700081743974
 30
0.0
 10
957.9023039741827
 20
545.7245736358379
 30
0.0
 10
958.1096128333202
 20
545.8581458696389
 30
0.0
 10
958.2799705656188
 20
545.9425170180685
 30
0.0
 10
958.3233677860794
 20
545.9146879469431
 30
0.0
 10
958.3522537872826
 20
545.8961643969673
 30
0.0
  0
SPLINE
  5
1F0
330
1F
100
AcDbEntity
  8
0
  6
Continuous
 62
     7
370
    25
100
AcDbSpline
210
0.0
220
0.0
230
1.0
 70
     8
 71
     3
 72
    13
 73
     9
 74
     0
 42
0.00000001
 43
0.00000001
 40
0.0
 40
0.0
 40
0.0
 40
0.0
 40
0.2493184137906365
 40
0.3745126144837236
 40
0.4997657860741984
 40
0.6250419963488373
 40
0.7503058753506845
 40
1.0
 40
1.0
 40
1.0
 40
1.0
 10
956.270273371969
 20
543.7296811835333
 30
0.0
 10
956.2675005801533
 20
543.7738120683077
 30
0.0
 10
956.2633354425021
 20
543.840103092645
 30
0.0
 10
956.363138087051
 20
544.0357186980425
 30
0.0
 10
956.4714057585237
 20
544.2101704136247
 30
0.0
 10
956.609670967818
 20
544.4064524700174
 30
0.0
 10
956.8297029662322
 20
544.6878441745476
 30
0.0
 10
957.0241861345738
 20
544.8998356728189
 30
0.0
 10
957.1536974505217
 20
545.0410062334643
 30
0.0
  0
LINE
  5
1F1
330
1F
100
AcDbEntity
  8
0
  6
Continuous
 62
     7
370
    25
100
AcDbLine
 10
955.749229425
 20
543.1557303468
 30
0.0
 11
956.3197989714
 21
543.7149173943
 31
0.0
  0
LINE
  5
1F2
330
1F
100
AcDbEntity
  8
0
  6
Continuous
 62
     7
370
    25
100
AcDbLine
 10
955.083047304
 20
542.839765677
 30
0.0
 11
955.6201801021
 21
543.4059892608
 31
0.0
  0
LINE
  5
1F3
330
1F
100
AcDbEntity
  8
0
  6
Continuous
 62
     7
370
    25
100
AcDbLine
 10
945.6346014596
 20
565.5290761923
 30
0.0
 11
945.9641932019
 21
564.8006847077
 31
0.0
  0
SPLINE
  5
1F4
330
1F
100
AcDbEntity
  8
0
  6
Continuous
 62
     7
370
    25
100
AcDbSpline
210
0.0
220
0.0
230
1.0
 70
     8
 71
     3
 72
     9
 73
     5
 74
     0
 42
0.00000001
 43
0.00000001
 40
0.0
 40
0.0
 40
0.0
 40
0.0
 40
0.5005639988693787
 40
1.0
 40
1.0
 40
1.0
 40
1.0
 10
945.9641932019349
 20
564.8006847077353
 30
0.0
 10
945.8336208770311
 20
564.7580008048442
 30
0.0
 10
945.5727704658974
 20
564.6727291852561
 30
0.0
 10
945.3066854950428
 20
564.7308158488078
 30
0.0
 10
945.173793081238
 20
564.7598264197711
 30
0.0
  0
SPLINE
  5
1F5
330
1F
100
AcDbEntity
  8
0
  6
Continuous
 62
     7
370
    25
100
AcDbSpline
210
0.0
220
0.0
230
1.0
 70
     8
 71
     3
 72
     9
 73
     5
 74
     0
 42
0.00000001
 43
0.00000001
 40
0.0
 40
0.0
 40
0.0
 40
0.0
 40
0.4996774093748329
 40
1.0
 40
1.0
 40
1.0
 40
1.0
 10
945.1737866575847
 20
564.759828422954
 30
0.0
 10
945.0130356249198
 20
564.836623064063
 30
0.0
 10
944.6913259985706
 20
564.9903115031804
 30
0.0
 10
944.5057883809013
 20
565.3199397712872
 30
0.0
 10
944.4129597193709
 20
565.4848602403296
 30
0.0
  0
SPLINE
  5
1F6
330
1F
100
AcDbEntity
  8
0
  6
Continuous
 62
     7
370
    25
100
AcDbSpline
210
0.0
220
0.0
230
1.0
 70
     8
 71
     3
 72
    14
 73
    10
 74
     0
 42
0.00000001
 43
0.00000001
 40
0.0
 40
0.0
 40
0.0
 40
0.0
 40
0.2497047560536039
 40
0.4990279644089629
 40
0.6242933796060988
 40
0.749463381395963
 40
0.8746336486516362
 40
0.9373043992085871
 40
0.9999999999999999
 40
0.9999999999999999
 40
0.9999999999999999
 40
0.9999999999999999
 10
944.4129597193709
 20
565.4848602403296
 30
0.0
 10
944.3560330504466
 20
565.6362650451953
 30
0.0
 10
944.2422666962815
 20
565.9388433090937
 30
0.0
 10
944.2698411331909
 20
566.3563341735401
 30
0.0
 10
944.3664316522561
 20
566.660571499133
 30
0.0
 10
944.4778017143018
 20
566.8714349494512
 30
0.0
 10
944.6076153413047
 20
567.0165273956409
 30
0.0
 10
944.7263827379344
 20
567.112791582625
 30
0.0
 10
944.7916526964902
 20
567.1510392822661
 30
0.0
 10
944.8242941447041
 20
567.1701669228338
 30
0.0
  0
SPLINE
  5
1F7
330
1F
100
AcDbEntity
  8
0
  6
Continuous
 62
     7
370
    25
100
AcDbSpline
210
0.0
220
0.0
230
1.0
 70
     8
 71
     3
 72
    11
 73
     7
 74
     0
 42
0.00000001
 43
0.00000001
 40
0.0
 40
0.0
 40
0.0
 40
0.0
 40
0.2498669131486546
 40
0.49968182529259
 40
0.7496559744547521
 40
1.0
 40
1.0
 40
1.0
 40
1.0
 10
944.8242941447041
 20
567.1701669228338
 30
0.0
 10
944.9095049478944
 20
567.2076906717363
 30
0.0
 10
945.0799088206452
 20
567.2827303602934
 30
0.0
 10
945.361537788493
 20
567.2803760085947
 30
0.0
 10
945.631230799265
 20
567.1958233169548
 30
0.0
 10
945.785290706876
 20
567.0835122442767
 30
0.0
 10
945.8623776075647
 20
567.0273151931422
 30
0.0
  0
SPLINE
  5
1F8
330
1F
100
AcDbEntity
  8
0
  6
Continuous
 62
     7
370
    25
100
AcDbSpline
210
0.0
220
0.0
230
1.0
 70
     8
 71
     3
 72
    11
 73
     7
 74
     0
 42
0.00000001
 43
0.00000001
 40
0.0
 40
0.0
 40
0.0
 40
0.0
 40
0.2502495101120815
 40
0.5001178316237915
 40
0.749922230048162
 40
0.9999999999999999
 40
0.9999999999999999
 40
0.9999999999999999
 40
0.9999999999999999
 10
945.8623780761784
 20
567.0273152750167
 30
0.0
 10
945.847971303316
 20
567.1554257886295
 30
0.0
 10
945.8191797024798
 20
567.4114516735456
 30
0.0
 10
945.9146616204288
 20
567.7872038631601
 30
0.0
 10
946.1145927218744
 20
568.1100744026961
 30
0.0
 10
946.3152477817412
 20
568.2436056918148
 30
0.0
 10
946.4156301779848
 20
568.310407848631
 30
0.0
  0
SPLINE
  5
1F9
330
1F
100
AcDbEntity
  8
0
  6
Continuous
 62
     7
370
    25
100
AcDbSpline
210
0.0
220
0.0
230
1.0
 70
     8
 71
     3
 72
    12
 73
     8
 74
     0
 42
0.00000001
 43
0.00000001
 40
0.0
 40
0.0
 40
0.0
 40
0.0
 40
0.2493199703800714
 40
0.3720578833159729
 40
0.5002076710686165
 40
0.749810161570895
 40
1.0
 40
1.0
 40
1.0
 40
1.0
 10
946.4156301779849
 20
568.3104078486311
 30
0.0
 10
946.5871840488522
 20
568.3806461936146
 30
0.0
 10
946.8431923019104
 20
568.4854622254884
 30
0.0
 10
947.212209898914
 20
568.44975033357
 30
0.0
 10
947.563653565813
 20
568.3398812811412
 30
0.0
 10
947.9682622433002
 20
568.0650455774764
 30
0.0
 10
948.1586776002033
 20
567.7238711634681
 30
0.0
 10
948.2539971651913
 20
567.5530834851149
 30
0.0
  0
SPLINE
  5
1FA
330
1F
100
AcDbEntity
  8
0
  6
Continuous
 62
     7
370
    25
100
AcDbSpline
210
0.0
220
0.0
230
1.0
 70
     8
 71
     3
 72
    13
 73
     9
 74
     0
 42
0.00000001
 43
0.00000001
 40
0.0
 40
0.0
 40
0.0
 40
0.0
 40
0.2495786897346634
 40
0.3748377846869339
 40
0.4999015574791608
 40
0.6246295054013684
 40
0.7502374914818196
 40
1.0
 40
1.0
 40
1.0
 40
1.0
 10
948.2539971651913
 20
567.5530834851149
 30
0.0
 10
948.3230969869088
 20
567.370674588912
 30
0.0
 10
948.4268767772522
 20
567.0967179196443
 30
0.0
 10
948.4274126196991
 20
566.7014722562544
 30
0.0
 10
948.3716167844753
 20
566.4129637171335
 30
0.0
 10
948.2613239265576
 20
566.1430158289269
 30
0.0
 10
948.0487699031092
 20
565.8224936903259
 30
0.0
 10
947.8242264017312
 20
565.6570648320948
 30
0.0
 10
947.6748205507581
 20
565.5469924443935
 30
0.0
  0
LINE
  5
1FB
330
1F
100
AcDbEntity
  8
0
  6
Continuous
 62
     7
370
    25
100
AcDbLine
 10
947.6748205508
 20
565.5469924444
 30
0.0
 11
947.336964956
 21
566.2975562945
 31
0.0
  0
SPLINE
  5
1FC
330
1F
100
AcDbEntity
  8
0
  6
Continuous
 62
     7
370
    25
100
AcDbSpline
210
0.0
220
0.0
230
1.0
 70
     8
 71
     3
 72
    12
 73
     8
 74
     0
 42
0.00000001
 43
0.00000001
 40
0.0
 40
0.0
 40
0.0
 40
0.0
 40
0.2504348736779237
 40
0.4998287054501609
 40
0.6238128105846013
 40
0.7503171224737227
 40
1.0
 40
1.0
 40
1.0
 40
1.0
 10
947.3369649559669
 20
566.2975562944753
 30
0.0
 10
947.4022717652928
 20
566.3542039918162
 30
0.0
 10
947.5326139076753
 20
566.4672639056088
 30
0.0
 10
947.6438856828697
 20
566.6670781065939
 30
0.0
 10
947.6798082291193
 20
566.845162255627
 30
0.0
 10
947.680530557244
 20
567.0291712080032
 30
0.0
 10
947.6324198883297
 20
567.1572774374652
 30
0.0
 10
947.6004878858793
 20
567.2423040755356
 30
0.0
  0
SPLINE
  5
1FD
330
1F
100
AcDbEntity
  8
0
  6
Continuous
 62
     7
370
    25
100
AcDbSpline
210
0.0
220
0.0
230
1.0
 70
     8
 71
     3
 72
    13
 73
     9
 74
     0
 42
0.00000001
 43
0.00000001
 40
0.0
 40
0.0
 40
0.0
 40
0.0
 40
0.2497730690898938
 40
0.3750456893603988
 40
0.5003168315206395
 40
0.6270765882981233
 40
0.7508153819208514
 40
1.0
 40
1.0
 40
1.0
 40
1.0
 10
947.6004846744956
 20
567.2423117360918
 30
0.0
 10
947.5575923557524
 20
567.3189646954326
 30
0.0
 10
947.4931875770069
 20
567.43406262045
 30
0.0
 10
947.3594042293759
 20
567.5393238568039
 30
0.0
 10
947.2482095689118
 20
567.5978350731541
 30
0.0
 10
947.1290310451121
 20
567.6307301259924
 30
0.0
 10
946.964618738963
 20
567.6410885334967
 30
0.0
 10
946.8502270167096
 20
567.5931656139837
 30
0.0
 10
946.7737913285046
 20
567.5611438797044
 30
0.0
  0
SPLINE
  5
1FE
330
1F
100
AcDbEntity
  8
0
  6
Continuous
 62
     7
370
    25
100
AcDbSpline
210
0.0
220
0.0
230
1.0
 70
     8
 71
     3
 72
    13
 73
     9
 74
     0
 42
0.00000001
 43
0.00000001
 40
0.0
 40
0.0
 40
0.0
 40
0.0
 40
0.1249222022390717
 40
0.2498240439390612
 40
0.3749059709739301
 40
0.5000418065238628
 40
0.7496343590854765
 40
1.0
 40
1.0
 40
1.0
 40
1.0
 10
946.7737913285046
 20
567.5611438797044
 30
0.0
 10
946.7279101993954
 20
567.5309131638722
 30
0.0
 10
946.6361554191474
 20
567.4704566593839
 30
0.0
 10
946.5370236680928
 20
567.3292577407013
 30
0.0
 10
946.4765175734944
 20
567.1664188052858
 30
0.0
 10
946.4405240706444
 20
566.9350623613559
 30
0.0
 10
946.4792963516388
 20
566.638673398128
 30
0.0
 10
946.566200972149
 20
566.4248350994689
 30
0.0
 10
946.6097204729717
 20
566.3177506204173
 30
0.0
  0
LINE
  5
1FF
330
1F
100
AcDbEntity
  8
0
  6
Continuous
 62
     7
370
    25
100
AcDbLine
 10
946.609720473
 20
566.3177506204
 30
0.0
 11
946.0162024713
 21
565.9895210286
 31
0.0
  0
SPLINE
  5
200
330
1F
100
AcDbEntity
  8
0
  6
Continuous
 62
     7
370
    25
100
AcDbSpline
210
0.0
220
0.0
230
1.0
 70
     8
 71
     3
 72
    14
 73
    10
 74
     0
 42
0.00000001
 43
0.00000001
 40
0.0
 40
0.0
 40
0.0
 40
0.0
 40
0.250488909929986
 40
0.4999755383863353
 40
0.624630876475852
 40
0.7499508799051035
 40
0.8748255751228531
 40
0.937392146262054
 40
1.0
 40
1.0
 40
1.0
 40
1.0
 10
946.0162020325365
 20
565.989520785986
 30
0.0
 10
945.9728401936737
 20
566.0638189307266
 30
0.0
 10
945.8862900197082
 20
566.2121179309825
 30
0.0
 10
945.742592979504
 20
566.3739318464216
 30
0.0
 10
945.5962340213067
 20
566.4525712233293
 30
0.0
 10
945.4769560795992
 20
566.4825761383591
 30
0.0
 10
945.3748691554403
 20
566.4783322837874
 30
0.0
 10
945.2962230980993
 20
566.4576052872148
 30
0.0
 10
945.2594633199993
 20
566.4395005369338
 30
0.0
 10
945.2410773692512
 20
566.4304451763147
 30
0.0
  0
SPLINE
  5
201
330
1F
100
AcDbEntity
  8
0
  6
Continuous
 62
     7
370
    25
100
AcDbSpline
210
0.0
220
0.0
230
1.0
 70
     8
 71
     3
 72
    14
 73
    10
 74
     0
 42
0.00000001
 43
0.00000001
 40
0.0
 40
0.0
 40
0.0
 40
0.0
 40
0.2490531668994785
 40
0.3727526748376356
 40
0.4992203538081202
 40
0.6224087781980395
 40
0.7494861004664176
 40
0.8746708486360624
 40
1.0
 40
1.0
 40
1.0
 40
1.0
 10
945.2410773692512
 20
566.4304451763147
 30
0.0
 10
945.19561100073
 20
566.3987121602482
 30
0.0
 10
945.127562436271
 20
566.3512180176655
 30
0.0
 10
945.0698168571802
 20
566.2515607611597
 30
0.0
 10
945.0422793713855
 20
566.1694713179738
 30
0.0
 10
945.0309267869719
 20
566.0817664150061
 30
0.0
 10
945.0362760789964
 20
565.993692642693
 30
0.0
 10
945.0562874375855
 20
565.9075117454013
 30
0.0
 10
945.0788124256801
 20
565.8542029597251
 30
0.0
 10
945.0900814117429
 20
565.8275332025521
 30
0.0
  0
SPLINE
  5
202
330
1F
100
AcDbEntity
  8
0
  6
Continuous
 62
     7
370
    25
100
AcDbSpline
210
0.0
220
0.0
230
1.0
 70
     8
 71
     3
 72
    12
 73
     8
 74
     0
 42
0.00000001
 43
0.00000001
 40
0.0
 40
0.0
 40
0.0
 40
0.0
 40
0.2498247371212981
 40
0.4995903948039417
 40
0.7494170323628558
 40
0.8746603237893418
 40
1.0
 40
1.0
 40
1.0
 40
1.0
 10
945.0900842164217
 20
565.8275278166811
 30
0.0
 10
945.1192030274989
 20
565.7768410712506
 30
0.0
 10
945.1774337635338
 20
565.6754795669706
 30
0.0
 10
945.3157005945448
 20
565.5739772439586
 30
0.0
 10
945.4454727026533
 20
565.5279065068254
 30
0.0
 10
945.5538927771249
 20
565.5176998074163
 30
0.0
 10
945.6076916676978
 20
565.5252830916993
 30
0.0
 10
945.634601459646
 20
565.5290761922662
 30
0.0
  0
LINE
  5
203
330
1F
100
AcDbEntity
  8
0
  6
Continuous
 62
     7
370
    25
100
AcDbLine
 10
944.8242941447
 20
567.1701669228
 30
0.0
 11
944.8204138516
 21
567.1697003862
 31
0.0
  0
LINE
  5
204
330
1F
100
AcDbEntity
  8
0
  6
Continuous
 62
     7
370
    25
100
AcDbLine
 10
944.4129597194
 20
565.4848602403
 30
0.0
 11
944.4089165131
 21
565.484743072
 31
0.0
  0
LINE
  5
205
330
1F
100
AcDbEntity
  8
0
  6
Continuous
 62
     7
370
    25
100
AcDbLine
 10
945.1737866576
 20
564.759828423
 30
0.0
 11
945.16961655
 21
564.7599833955
 31
0.0
  0
LINE
  5
206
330
1F
100
AcDbEntity
  8
0
  6
Continuous
 62
     7
370
    25
100
AcDbLine
 10
945.6346014596
 20
565.5290761923
 30
0.0
 11
945.6304876382
 21
565.5291104587
 31
0.0
  0
LINE
  5
207
330
1F
100
AcDbEntity
  8
0
  6
Continuous
 62
     7
370
    25
100
AcDbLine
 10
946.0162020325
 20
565.989520786
 30
0.0
 11
946.0121157908
 21
565.9894959076
 31
0.0
  0
LINE
  5
208
330
1F
100
AcDbEntity
  8
0
  6
Continuous
 62
     7
370
    25
100
AcDbLine
 10
946.415630178
 20
568.3104078486
 30
0.0
 11
946.4117838597
 21
568.3098684527
 31
0.0
  0
LINE
  5
209
330
1F
100
AcDbEntity
  8
0
  6
Continuous
 62
     7
370
    25
100
AcDbLine
 10
939.2587080075
 20
579.9303130929
 30
0.0
 11
939.5831029365
 21
579.2125448225
 31
0.0
  0
SPLINE
  5
20A
330
1F
100
AcDbEntity
  8
0
  6
Continuous
 62
     7
370
    25
100
AcDbSpline
210
0.0
220
0.0
230
1.0
 70
     8
 71
     3
 72
    13
 73
     9
 74
     0
 42
0.00000001
 43
0.00000001
 40
0.0
 40
0.0
 40
0.0
 40
0.0
 40
0.2498538630671536
 40
0.376092721689276
 40
0.5002053819923183
 40
0.6262088155993492
 40
0.7505382361164588
 40
1.0
 40
1.0
 40
1.0
 40
1.0
 10
939.5831029365131
 20
579.2125448225248
 30
0.0
 10
939.3921151676294
 20
579.1755514081251
 30
0.0
 10
939.1046306799891
 20
579.119867042331
 30
0.0
 10
938.7041386777614
 20
579.1729730371293
 30
0.0
 10
938.412944352957
 20
579.2689269841884
 30
0.0
 10
938.1450971186686
 20
579.416989738616
 30
0.0
 10
937.8311148923631
 20
579.678041709336
 30
0.0
 10
937.6864102699826
 20
579.932540957858
 30
0.0
 10
937.589836910718
 20
580.1023893494009
 30
0.0
  0
SPLINE
  5
20B
330
1F
100
AcDbEntity
  8
0
  6
Continuous
 62
     7
370
    25
100
AcDbSpline
210
0.0
220
0.0
230
1.0
 70
     8
 71
     3
 72
    12
 73
     8
 74
     0
 42
0.00000001
 43
0.00000001
 40
0.0
 40
0.0
 40
0.0
 40
0.0
 40
0.2501051722999106
 40
0.376390303443748
 40
0.5009042991085255
 40
0.7506436865835657
 40
1.0
 40
1.0
 40
1.0
 40
1.0
 10
937.589833147639
 20
580.1023968982009
 30
0.0
 10
937.5308699725373
 20
580.2590962150882
 30
0.0
 10
937.442134633062
 20
580.4949174213842
 30
0.0
 10
937.4526189382094
 20
580.813075989572
 30
0.0
 10
937.5355817196838
 20
581.1108666756639
 30
0.0
 10
937.7626762995028
 20
581.4413352854518
 30
0.0
 10
938.0617651533468
 20
581.5816706202818
 30
0.0
 10
938.2111947994953
 20
581.651784431466
 30
0.0
  0
SPLINE
  5
20C
330
1F
100
AcDbEntity
  8
0
  6
Continuous
 62
     7
370
    25
100
AcDbSpline
210
0.0
220
0.0
230
1.0
 70
     8
 71
     3
 72
    10
 73
     6
 74
     0
 42
0.00000001
 43
0.00000001
 40
0.0
 40
0.0
 40
0.0
 40
0.0
 40
0.2494824448341598
 40
0.499571670762416
 40
1.0
 40
1.0
 40
1.0
 40
1.0
 10
938.2111947994953
 20
581.651784431466
 30
0.0
 10
938.3883569094695
 20
581.685359467934
 30
0.0
 10
938.7431120159235
 20
581.7525912007133
 30
0.0
 10
939.4946323144602
 20
581.6494255917308
 30
0.0
 10
940.0223228102006
 20
581.4432372616627
 30
0.0
 10
940.3741750371346
 20
581.3057554921637
 30
0.0
  0
LINE
  5
20D
330
1F
100
AcDbEntity
  8
0
  6
Continuous
 62
     7
370
    25
100
AcDbLine
 10
940.3741750371
 20
581.3057554922
 30
0.0
 11
941.047733149
 21
581.0262240492
 31
0.0
  0
LINE
  5
20E
330
1F
100
AcDbEntity
  8
0
  6
Continuous
 62
     7
370
    25
100
AcDbLine
 10
941.047733149
 20
581.0262240492
 30
0.0
 11
940.4079603983
 21
582.3663968731
 31
0.0
  0
LINE
  5
20F
330
1F
100
AcDbEntity
  8
0
  6
Continuous
 62
     7
370
    25
100
AcDbLine
 10
940.4079603983
 20
582.3663968731
 30
0.0
 11
941.1123313494
 21
582.5845648328
 31
0.0
  0
LINE
  5
210
330
1F
100
AcDbEntity
  8
0
  6
Continuous
 62
     7
370
    25
100
AcDbLine
 10
941.1123318313
 20
582.5845649819
 30
0.0
 11
942.3416019536
 21
579.9455450975
 31
0.0
  0
LINE
  5
211
330
1F
100
AcDbEntity
  8
0
  6
Continuous
 62
     7
370
    25
100
AcDbLine
 10
942.3416019536
 20
579.9455450975
 30
0.0
 11
941.9773125713
 21
579.832780641
 31
0.0
  0
LINE
  5
212
330
1F
100
AcDbEntity
  8
0
  6
Continuous
 62
     7
370
    25
100
AcDbLine
 10
941.9773125713
 20
579.832780641
 30
0.0
 11
940.1733130231
 21
580.6371750046
 31
0.0
  0
SPLINE
  5
213
330
1F
100
AcDbEntity
  8
0
  6
Continuous
 62
     7
370
    25
100
AcDbSpline
210
0.0
220
0.0
230
1.0
 70
     8
 71
     3
 72
    10
 73
     6
 74
     0
 42
0.00000001
 43
0.00000001
 40
0.0
 40
0.0
 40
0.0
 40
0.0
 40
0.500878689128385
 40
0.750923835196147
 40
1.0
 40
1.0
 40
1.0
 40
1.0
 10
940.1733130230734
 20
580.6371750046447
 30
0.0
 10
939.9214253805628
 20
580.7442048903638
 30
0.0
 10
939.5437921558758
 20
580.9046654849335
 30
0.0
 10
939.0028228372498
 20
581.0225212472069
 30
0.0
 10
938.7421902861577
 20
580.9822783512864
 30
0.0
 10
938.6121270032742
 20
580.962195966587
 30
0.0
  0
SPLINE
  5
214
330
1F
100
AcDbEntity
  8
0
  6
Continuous
 62
     7
370
    25
100
AcDbSpline
210
0.0
220
0.0
230
1.0
 70
     8
 71
     3
 72
    14
 73
    10
 74
     0
 42
0.00000001
 43
0.00000001
 40
0.0
 40
0.0
 40
0.0
 40
0.0
 40
0.2491979423487203
 40
0.373131317419174
 40
0.4993707050714574
 40
0.6252507360213511
 40
0.7495836504996755
 40
0.8747056683922172
 40
1.0
 40
1.0
 40
1.0
 40
1.0
 10
938.6121270032742
 20
580.962195966587
 30
0.0
 10
938.5430891574244
 20
580.9339910642931
 30
0.0
 10
938.4397167855228
 20
580.8917590448334
 30
0.0
 10
938.3440233561532
 20
580.787116462307
 30
0.0
 10
938.2930994996678
 20
580.6958030078846
 30
0.0
 10
938.2642060335503
 20
580.5946742567623
 30
0.0
 10
938.2605393981792
 20
580.4881818478392
 30
0.0
 10
938.2818691998982
 20
580.3810168008098
 30
0.0
 10
938.3102646148707
 20
580.3120566951595
 30
0.0
 10
938.3244720919256
 20
580.2775529163036
 30
0.0
  0
SPLINE
  5
215
330
1F
100
AcDbEntity
  8
0
  6
Continuous
 62
     7
370
    25
100
AcDbSpline
210
0.0
220
0.0
230
1.0
 70
     8
 71
     3
 72
    13
 73
     9
 74
     0
 42
0.00000001
 43
0.00000001
 40
0.0
 40
0.0
 40
0.0
 40
0.0
 40
0.1252108212617329
 40
0.250321729058376
 40
0.3727309907640478
 40
0.5005777163481835
 40
0.7499347659695748
 40
1.0
 40
1.0
 40
1.0
 40
1.0
 10
938.3244748192317
 20
580.2775475909672
 30
0.0
 10
938.3449829104658
 20
580.2385401788409
 30
0.0
 10
938.3859827282583
 20
580.160556481017
 30
0.0
 10
938.4806346061343
 20
580.0611496458686
 30
0.0
 10
938.5952740805282
 20
579.9816764971861
 30
0.0
 10
938.7661507203495
 20
579.9077149525543
 30
0.0
 10
939.0001858558636
 20
579.8740378857758
 30
0.0
 10
939.1724525318091
 20
579.9115369658425
 30
0.0
 10
939.2587080074777
 20
579.930313092859
 30
0.0
  0
LINE
  5
216
330
1F
100
AcDbEntity
  8
0
  6
Continuous
 62
     7
370
    25
100
AcDbLine
 10
937.5898331476
 20
580.1023968982
 30
0.0
 11
937.5878165852
 21
580.0979335782
 31
0.0
  0
LINE
  5
217
330
1F
100
AcDbEntity
  8
0
  6
Continuous
 62
     7
370
    25
100
AcDbLine
 10
939.5831029365
 20
579.2125448225
 30
0.0
 11
939.5809005433
 21
579.208480018
 31
0.0
  0
LINE
  5
218
330
1F
100
AcDbEntity
  8
0
  6
Continuous
 62
     7
370
    25
100
AcDbLine
 10
947.6004846745
 20
567.2423117361
 30
0.0
 11
947.5964408042
 21
567.2421959918
 31
0.0
  0
LINE
  5
219
330
1F
100
AcDbEntity
  8
0
  6
Continuous
 62
     7
370
    25
100
AcDbLine
 10
947.336964956
 20
566.2975562945
 30
0.0
 11
947.3328295312
 21
566.2976368895
 31
0.0
  0
LINE
  5
21A
330
1F
100
AcDbEntity
  8
0
  6
Continuous
 62
     7
370
    25
100
AcDbLine
 10
947.6748205508
 20
565.5469924444
 30
0.0
 11
947.6705777279
 21
565.5473033552
 31
0.0
  0
LINE
  5
21B
330
1F
100
AcDbEntity
  8
0
  6
Continuous
 62
     7
370
    25
100
AcDbLine
 10
938.6121270033
 20
580.9621959666
 30
0.0
 11
938.6101774567
 21
580.9575889306
 31
0.0
  0
LINE
  5
21C
330
1F
100
AcDbEntity
  8
0
  6
Continuous
 62
     7
370
    25
100
AcDbLine
 10
940.1733130231
 20
580.6371750046
 30
0.0
 11
940.1712634674
 21
580.6327824389
 31
0.0
  0
LINE
  5
21D
330
1F
100
AcDbEntity
  8
0
  6
Continuous
 62
     7
370
    25
100
AcDbLine
 10
941.9773125713
 20
579.832780641
 30
0.0
 11
941.9750888665
 21
579.8287615393
 31
0.0
  0
LINE
  5
21E
330
1F
100
AcDbEntity
  8
0
  6
Continuous
 62
     7
370
    25
100
AcDbLine
 10
939.059044634
 20
593.0619111819
 30
0.0
 11
957.5404786822
 21
553.4283479644
 31
0.0
  0
ARC
  5
21F
330
1F
100
AcDbEntity
  8
0
  6
Continuous
 62
     7
370
    25
100
AcDbCircle
 10
956.7777702149
 20
553.1430580121
 30
0.0
 40
0.8143184653806892
100
AcDbArc
 50
308.001895257
 51
20.508234223
  0
ARC
  5
220
330
1F
100
AcDbEntity
  8
0
  6
Continuous
 62
     7
370
    25
100
AcDbCircle
 10
938.3502402987
 20
592.6610234453
 30
0.0
 40
0.8143184653810707
100
AcDbArc
 50
29.491765777
 51
101.998104743
  0
LINE
  5
221
330
1F
100
AcDbEntity
  8
0
  6
Continuous
 62
     7
370
    25
100
AcDbLine
 10
942.3416019536
 20
579.9455450975
 30
0.0
 11
942.3393772174
 21
579.9415282076
 31
0.0
  0
LINE
  5
222
330
1F
100
AcDbEntity
  8
0
  6
Continuous
 62
     7
370
    25
100
AcDbLine
 10
940.4079603983
 20
582.3663968731
 30
0.0
 11
940.4061206076
 21
582.3615544649
 31
0.0
  0
LINE
  5
223
330
1F
100
AcDbEntity
  8
0
  6
Continuous
 62
     7
370
    25
100
AcDbLine
 10
951.3475926447
 20
550.5205526802
 30
0.0
 11
951.072268961
 21
551.0664170463
 31
0.0
  0
LINE
  5
224
330
1F
100
AcDbEntity
  8
0
  6
Continuous
 62
     7
370
    25
100
AcDbLine
 10
951.072268961
 20
551.0664170463
 30
0.0
 11
953.1637544393
 21
552.9118913078
 31
0.0
  0
LINE
  5
225
330
1F
100
AcDbEntity
  8
0
  6
Continuous
 62
     7
370
    25
100
AcDbLine
 10
953.1637544393
 20
552.9118913078
 30
0.0
 11
953.0299213606
 21
553.1713531365
 31
0.0
  0
LINE
  5
226
330
1F
100
AcDbEntity
  8
0
  6
Continuous
 62
     7
370
    25
100
AcDbLine
 10
953.0299213606
 20
553.1713531365
 30
0.0
 11
953.6018676044
 21
553.6762836729
 31
0.0
  0
LINE
  5
227
330
1F
100
AcDbEntity
  8
0
  6
Continuous
 62
     7
370
    25
100
AcDbLine
 10
953.6018676044
 20
553.6762836729
 30
0.0
 11
953.7358882033
 21
553.4166934016
 31
0.0
  0
LINE
  5
228
330
1F
100
AcDbEntity
  8
0
  6
Continuous
 62
     7
370
    25
100
AcDbLine
 10
953.7358882033
 20
553.4166934016
 30
0.0
 11
954.4027210082
 21
554.0054417484
 31
0.0
  0
LINE
  5
229
330
1F
100
AcDbEntity
  8
0
  6
Continuous
 62
     7
370
    25
100
AcDbLine
 10
954.4027210082
 20
554.0054417484
 30
0.0
 11
954.6739328346
 21
553.4701925867
 31
0.0
  0
LINE
  5
22A
330
1F
100
AcDbEntity
  8
0
  6
Continuous
 62
     7
370
    25
100
AcDbLine
 10
954.6739328346
 20
553.4701925867
 30
0.0
 11
954.0067347586
 21
552.8816995069
 31
0.0
  0
LINE
  5
22B
330
1F
100
AcDbEntity
  8
0
  6
Continuous
 62
     7
370
    25
100
AcDbLine
 10
954.0067347586
 20
552.8816995069
 30
0.0
 11
954.5894227859
 21
551.6632805928
 31
0.0
  0
LINE
  5
22C
330
1F
100
AcDbEntity
  8
0
  6
Continuous
 62
     7
370
    25
100
AcDbLine
 10
954.5894227859
 20
551.6632805928
 30
0.0
 11
954.0167757297
 21
551.1588432506
 31
0.0
  0
LINE
  5
22D
330
1F
100
AcDbEntity
  8
0
  6
Continuous
 62
     7
370
    25
100
AcDbLine
 10
954.0167757297
 20
551.1588432506
 30
0.0
 11
951.3475931496
 21
550.5205527949
 31
0.0
  0
LINE
  5
22E
330
1F
100
AcDbEntity
  8
0
  6
Continuous
 62
     7
370
    25
100
AcDbLine
 10
953.7479720236
 20
551.7328604496
 30
0.0
 11
953.4342994061
 21
552.3771083374
 31
0.0
  0
LINE
  5
22F
330
1F
100
AcDbEntity
  8
0
  6
Continuous
 62
     7
370
    25
100
AcDbLine
 10
953.4342994061
 20
552.3771083374
 30
0.0
 11
952.3453062602
 21
551.4168666093
 31
0.0
  0
LINE
  5
230
330
1F
100
AcDbEntity
  8
0
  6
Continuous
 62
     7
370
    25
100
AcDbLine
 10
952.3453062602
 20
551.4168666093
 30
0.0
 11
953.7479720236
 21
551.7328604496
 31
0.0
  0
LINE
  5
231
330
1F
100
AcDbEntity
  8
0
  6
Continuous
 62
     7
370
    25
100
AcDbLine
 10
953.1637544393
 20
552.9118913078
 30
0.0
 11
953.1577256753
 21
552.9160321817
 31
0.0
  0
LINE
  5
232
330
1F
100
AcDbEntity
  8
0
  6
Continuous
 62
     7
370
    25
100
AcDbLine
 10
951.072268961
 20
551.0664170463
 30
0.0
 11
951.0662323598
 21
551.0705747273
 31
0.0
  0
LINE
  5
233
330
1F
100
AcDbEntity
  8
0
  6
Continuous
 62
     7
370
    25
100
AcDbLine
 10
951.3475926447
 20
550.5205526802
 30
0.0
 11
951.341478663
 21
550.5248763041
 31
0.0
  0
LINE
  5
234
330
1F
100
AcDbEntity
  8
0
  6
Continuous
 62
     7
370
    25
100
AcDbLine
 10
953.6018676044
 20
553.6762836729
 30
0.0
 11
953.5958798097
 21
553.680336688
 31
0.0
  0
LINE
  5
235
330
1F
100
AcDbEntity
  8
0
  6
Continuous
 62
     7
370
    25
100
AcDbLine
 10
953.0299213606
 20
553.1713531365
 30
0.0
 11
953.0239309231
 21
553.175411819
 31
0.0
  0
LINE
  5
236
330
1F
100
AcDbEntity
  8
0
  6
Continuous
 62
     7
370
    25
100
AcDbLine
 10
954.4027210082
 20
554.0054417484
 30
0.0
 11
954.396697188
 21
554.0095720203
 31
0.0
  0
LINE
  5
237
330
1F
100
AcDbEntity
  8
0
  6
Continuous
 62
     7
370
    25
100
AcDbLine
 10
953.7417710814
 20
551.7373705609
 30
0.0
 11
953.4281920751
 21
552.3814176987
 31
0.0
  0
LINE
  5
238
330
1F
100
AcDbEntity
  8
0
  6
Continuous
 62
     7
370
    25
100
AcDbLine
 10
952.3391962701
 20
551.4211816732
 30
0.0
 11
953.7417710814
 21
551.7373705609
 31
0.0
  0
LINE
  5
239
330
1F
100
AcDbEntity
  8
0
  6
Continuous
 62
     7
370
    25
100
AcDbLine
 10
953.7417710814
 20
551.7373705609
 30
0.0
 11
953.7479720236
 21
551.7328604496
 31
0.0
  0
SPLINE
  5
23A
330
1F
100
AcDbEntity
  8
0
  6
Continuous
 62
     7
370
    25
100
AcDbSpline
210
0.0
220
0.0
230
1.0
 70
     8
 71
     3
 72
     9
 73
     5
 74
     0
 42
0.00000001
 43
0.00000001
 40
0.0
 40
0.0
 40
0.0
 40
0.0
 40
0.5315589426747961
 40
1.0
 40
1.0
 40
1.0
 40
1.0
 10
957.5404786822307
 20
553.4283479644421
 30
0.0
 10
957.6430763007113
 20
553.2572570377649
 30
0.0
 10
957.8360889851831
 20
552.9353907065992
 30
0.0
 10
958.1614997188042
 20
552.87746696425
 30
0.0
 10
958.3139354669265
 20
552.8503331051397
 30
0.0
  0
SPLINE
  5
23B
330
1F
100
AcDbEntity
  8
0
  6
Continuous
 62
     7
370
    25
100
AcDbSpline
210
0.0
220
0.0
230
1.0
 70
     8
 71
     3
 72
    12
 73
     8
 74
     0
 42
0.00000001
 43
0.00000001
 40
0.0
 40
0.0
 40
0.0
 40
0.0
 40
0.0304717459459132
 40
0.0888135668585919
 40
0.3925556175487279
 40
0.6962774394174054
 40
1.0
 40
1.0
 40
1.0
 40
1.0
 10
958.3139354669266
 20
552.8503331051397
 30
0.0
 10
958.31863811714
 20
552.8408270941261
 30
0.0
 10
958.3323445565369
 20
552.8131206822185
 30
0.0
 10
958.3871738579512
 20
552.686375904596
 30
0.0
 10
958.4442647354543
 20
552.4482292895739
 30
0.0
 10
958.4357053431902
 20
552.1030463103859
 30
0.0
 10
958.3557849328577
 20
551.8986897966781
 30
0.0
 10
958.315824679096
 20
551.7965114155651
 30
0.0
  0
SPLINE
  5
23C
330
1F
100
AcDbEntity
  8
0
  6
Continuous
 62
     7
370
    25
100
AcDbSpline
210
0.0
220
0.0
230
1.0
 70
     8
 71
     3
 72
    10
 73
     6
 74
     0
 42
0.00000001
 43
0.00000001
 40
0.0
 40
0.0
 40
0.0
 40
0.0
 40
0.2117958997112903
 40
0.4880069094693977
 40
0.9999999999999999
 40
0.9999999999999999
 40
0.9999999999999999
 40
0.9999999999999999
 10
958.315824679096
 20
551.7965114155651
 30
0.0
 10
958.3147096752232
 20
551.7937711968192
 30
0.0
 10
958.3121405528052
 20
551.787457355601
 30
0.0
 10
958.3117365734507
 20
551.7762907974414
 30
0.0
 10
958.3141518705236
 20
551.7699528626728
 30
0.0
 10
958.3157207730608
 20
551.7658359355866
 30
0.0
  0
SPLINE
  5
23D
330
1F
100
AcDbEntity
  8
0
  6
Continuous
 62
     7
370
    25
100
AcDbSpline
210
0.0
220
0.0
230
1.0
 70
     8
 71
     3
 72
    12
 73
     8
 74
     0
 42
0.00000001
 43
0.00000001
 40
0.0
 40
0.0
 40
0.0
 40
0.0
 40
0.0304717459515684
 40
0.0888135668586115
 40
0.3925556175487578
 40
0.6962774394174427
 40
1.0
 40
1.0
 40
1.0
 40
1.0
 10
939.1134280008016
 20
594.0259542435393
 30
0.0
 10
939.1091687791766
 20
594.0356670287013
 30
0.0
 10
939.0967547657117
 20
594.0639761087172
 30
0.0
 10
939.0349062287243
 20
594.1874477630436
 30
0.0
 10
938.8891726463171
 20
594.3842596059211
 30
0.0
 10
938.6192452719602
 20
594.5995820731412
 30
0.0
 10
938.411327250696
 20
594.6697173218839
 30
0.0
 10
938.3073681136391
 20
594.704784988901
 30
0.0
  0
SPLINE
  5
23E
330
1F
100
AcDbEntity
  8
0
  6
Continuous
 62
     7
370
    25
100
AcDbSpline
210
0.0
220
0.0
230
1.0
 70
     8
 71
     3
 72
     9
 73
     5
 74
     0
 42
0.00000001
 43
0.00000001
 40
0.0
 40
0.0
 40
0.0
 40
0.0
 40
0.4684410573252002
 40
1.0
 40
1.0
 40
1.0
 40
1.0
 10
939.1134280008016
 20
594.0259542435393
 30
0.0
 10
939.036229932627
 20
593.8917403773185
 30
0.0
 10
938.8714321059475
 20
593.605228629208
 30
0.0
 10
938.9939298582734
 20
593.2504806451682
 30
0.0
 10
939.0590446339799
 20
593.061911181856
 30
0.0
  0
SPLINE
  5
23F
330
1F
100
AcDbEntity
  8
0
  6
Continuous
 62
     7
370
    25
100
AcDbSpline
210
0.0
220
0.0
230
1.0
 70
     8
 71
     3
 72
    11
 73
     7
 74
     0
 42
0.00000001
 43
0.00000001
 40
0.0
 40
0.0
 40
0.0
 40
0.0
 40
0.3704320937877261
 40
0.7442498469283862
 40
0.9442480537673084
 40
1.0
 40
1.0
 40
1.0
 40
1.0
 10
938.2838025431497
 20
594.7244232107116
 30
0.0
 10
938.2852921093095
 20
594.7216361471543
 30
0.0
 10
938.2882848559019
 20
594.7160365469559
 30
0.0
 10
938.2955520362231
 20
594.7093346554103
 30
0.0
 10
938.3030751110892
 20
594.705919760455
 30
0.0
 10
938.3065997616831
 20
594.7049880877655
 30
0.0
 10
938.3073681136392
 20
594.704784988901
 30
0.0
  0
SPLINE
  5
240
330
1F
100
AcDbEntity
  8
0
  6
Continuous
 62
     7
370
    25
100
AcDbSpline
210
0.0
220
0.0
230
1.0
 70
     8
 71
     3
 72
    11
 73
     7
 74
     0
 42
0.00000001
 43
0.00000001
 40
0.0
 40
0.0
 40
0.0
 40
0.0
 40
0.365828110989445
 40
0.7252591430831256
 40
0.982069018177673
 40
1.0
 40
1.0
 40
1.0
 40
1.0
 10
941.6066419804573
 20
594.5732880558955
 30
0.0
 10
941.2263705131114
 20
594.5817473581943
 30
0.0
 10
940.472477222078
 20
594.5985180386095
 30
0.0
 10
939.6159325806665
 20
594.4003707457168
 30
0.0
 10
939.2347113914517
 20
594.1613891537262
 30
0.0
 10
939.120858610738
 20
594.034251867674
 30
0.0
 10
939.1134280008016
 20
594.0259542435393
 30
0.0
  0
LINE
  5
241
330
1F
100
AcDbEntity
  8
0
  6
Continuous
 62
     7
370
    25
100
AcDbLine
 10
941.6066419805
 20
594.5732880559
 30
0.0
 11
960.3358245468
 21
554.4084264268
 31
0.0
  0
SPLINE
  5
242
330
1F
100
AcDbEntity
  8
0
  6
Continuous
 62
     7
370
    25
100
AcDbSpline
210
0.0
220
0.0
230
1.0
 70
     8
 71
     3
 72
    11
 73
     7
 74
     0
 42
0.00000001
 43
0.00000001
 40
0.0
 40
0.0
 40
0.0
 40
0.0
 40
0.235794853775867
 40
0.2749019968044796
 40
0.6342531696138334
 40
0.9999999999999999
 40
0.9999999999999999
 40
0.9999999999999999
 40
0.9999999999999999
 10
958.3139354669265
 20
552.8503331051397
 30
0.0
 10
958.4662139599849
 20
552.8735157165326
 30
0.0
 10
958.6437482069872
 20
552.9005432197242
 30
0.0
 10
959.0778069850436
 20
553.1129381063606
 30
0.0
 10
959.6267916238655
 20
553.5229343724894
 30
0.0
 10
960.0980945450664
 20
554.1115318527836
 30
0.0
 10
960.3358245468334
 20
554.4084264268164
 30
0.0
  0
LINE
  5
243
330
1F
100
AcDbEntity
  8
0
  6
Continuous
 62
     7
370
    25
100
AcDbLine
 10
930.9125209275
 20
594.6628078004
 30
0.0
 11
930.6488649206
 21
595.2361272906
 31
0.0
  0
LINE
  5
244
330
1F
100
AcDbEntity
  8
0
  6
Continuous
 62
     7
370
    25
100
AcDbLine
 10
930.6488649206
 20
595.2361272906
 30
0.0
 11
935.0231912841
 21
595.6785049673
 31
0.0
  0
LINE
  5
245
330
1F
100
AcDbEntity
  8
0
  6
Continuous
 62
     7
370
    25
100
AcDbLine
 10
935.0231912841
 20
595.6785049673
 30
0.0
 11
935.1979712555
 21
595.302839372
 31
0.0
  0
LINE
  5
246
330
1F
100
AcDbEntity
  8
0
  6
Continuous
 62
     7
370
    25
100
AcDbLine
 10
935.1979712555
 20
595.302839372
 30
0.0
 11
931.6055041949
 21
594.939694544
 31
0.0
  0
LINE
  5
247
330
1F
100
AcDbEntity
  8
0
  6
Continuous
 62
     7
370
    25
100
AcDbLine
 10
931.6055041949
 20
594.939694544
 30
0.0
 11
931.7961254262
 21
594.5090137405
 31
0.0
  0
LINE
  5
248
330
1F
100
AcDbEntity
  8
0
  6
Continuous
 62
     7
370
    25
100
AcDbLine
 10
931.7961254262
 20
594.5090137405
 30
0.0
 11
930.9125209275
 21
594.6628078004
 31
0.0
  0
LINE
  5
249
330
1F
100
AcDbEntity
  8
0
  6
Continuous
 62
     7
370
    25
100
AcDbLine
 10
930.9125209275
 20
594.6628078004
 30
0.0
 11
930.9125210973
 21
594.6540195843
 31
0.0
  0
LINE
  5
24A
330
1F
100
AcDbEntity
  8
0
  6
Continuous
 62
     7
370
    25
100
AcDbLine
 10
931.7961254262
 20
594.5090137405
 30
0.0
 11
931.7960925372
 21
594.5002964191
 31
0.0
  0
LINE
  5
24B
330
1F
100
AcDbEntity
  8
0
  6
Continuous
 62
     7
370
    25
100
AcDbLine
 10
972.7889344194
 20
566.6567647382
 30
0.0
 11
961.1775171271
 21
553.5331205009
 31
0.0
  0
SPLINE
  5
24C
330
1F
100
AcDbEntity
  8
0
  6
Continuous
 62
     7
370
    25
100
AcDbSpline
210
0.0
220
0.0
230
1.0
 70
     8
 71
     3
 72
    10
 73
     6
 74
     0
 42
0.00000001
 43
0.00000001
 40
0.0
 40
0.0
 40
0.0
 40
0.0
 40
0.3554439450437168
 40
0.7142330220663397
 40
1.0
 40
1.0
 40
1.0
 40
1.0
 10
961.1775171271129
 20
553.5331205008889
 30
0.0
 10
960.8345382958521
 20
553.1908793902398
 30
0.0
 10
960.1453528122564
 20
552.5031762906578
 30
0.0
 10
959.1204709060639
 20
551.8841767051879
 30
0.0
 10
958.5629875595764
 20
551.8234395297786
 30
0.0
 10
958.315824679096
 20
551.7965114155651
 30
0.0
  0
ARC
  5
24D
330
1F
100
AcDbEntity
  8
0
  6
Continuous
 62
     7
370
    25
100
AcDbCircle
 10
957.7666786098
 20
551.0956023972
 30
0.0
 40
4.192292200797104
100
AcDbArc
 50
35.5510775205
 51
52.205872348
  0
SPLINE
  5
24E
330
1F
100
AcDbEntity
  8
0
  6
Continuous
 62
     7
370
    25
100
AcDbSpline
210
0.0
220
0.0
230
1.0
 70
     8
 71
     3
 72
    12
 73
     8
 74
     0
 42
0.00000001
 43
0.00000001
 40
0.0
 40
0.0
 40
0.0
 40
0.0
 40
0.2238925571850028
 40
0.447784898419827
 40
0.6716824862031615
 40
0.8955821585468708
 40
1.0
 40
1.0
 40
1.0
 40
1.0
 10
936.9889567815344
 20
599.0836560726162
 30
0.0
 10
936.9610890204034
 20
599.0833205788633
 30
0.0
 10
936.9053535250207
 20
599.0826495916807
 30
0.0
 10
936.8333920589936
 20
599.082046179291
 30
0.0
 10
936.7809995913639
 20
599.0817174884867
 30
0.0
 10
936.7576642471198
 20
599.0816233000048
 30
0.0
 10
936.7557155861889
 20
599.0816333523034
 30
0.0
 10
936.7550958356132
 20
599.0816365493284
 30
0.0
  0
LINE
  5
24F
330
1F
100
AcDbEntity
  8
0
  6
Continuous
 62
     7
370
    25
100
AcDbLine
 10
936.9889567815
 20
599.0836560726
 30
0.0
 11
956.0837873074
 21
599.2917436143
 31
0.0
  0
LINE
  5
250
330
1F
100
AcDbEntity
  8
0
  6
Continuous
 62
     7
370
    25
100
AcDbLine
 10
956.0837873074
 20
599.2917436143
 30
0.0
 11
957.5624236641
 21
599.3101224279
 31
0.0
  0
LINE
  5
251
330
1F
100
AcDbEntity
  8
0
  6
Continuous
 62
     7
370
    25
100
AcDbLine
 10
958.9941182094
 20
596.2398435675
 30
0.0
 11
957.5624236641
 21
599.3101224279
 31
0.0
  0
LINE
  5
252
330
1F
100
AcDbEntity
  8
0
  6
Continuous
 62
     7
370
    25
100
AcDbLine
 10
941.4771483016
 20
595.7806977837
 30
0.0
 11
958.9941182094
 21
596.2398435675
 31
0.0
  0
SPLINE
  5
253
330
1F
100
AcDbEntity
  8
0
  6
Continuous
 62
     7
370
    25
100
AcDbSpline
210
0.0
220
0.0
230
1.0
 70
     8
 71
     3
 72
    10
 73
     6
 74
     0
 42
0.00000001
 43
0.00000001
 40
0.0
 40
0.0
 40
0.0
 40
0.0
 40
0.285766977933652
 40
0.6445560549562761
 40
1.0
 40
1.0
 40
1.0
 40
1.0
 10
938.3073681136391
 20
594.704784988901
 30
0.0
 10
938.4868694830435
 20
594.8768136818696
 30
0.0
 10
938.891740246485
 20
595.2648295977773
 30
0.0
 10
940.0247028299198
 20
595.6520494229283
 30
0.0
 10
940.9945138575014
 20
595.7379491013605
 30
0.0
 10
941.4771483016402
 20
595.7806977837048
 30
0.0
  0
ARC
  5
254
330
1F
100
AcDbEntity
  8
0
  6
Continuous
 62
     7
370
    25
100
AcDbCircle
 10
937.4174563657
 20
594.7346503266
 30
0.0
 40
4.192292200801723
100
AcDbArc
 50
357.7941276521
 51
14.4489224795
  0
LINE
  5
255
330
1F
100
AcDbEntity
  8
0
  6
Continuous
 62
     7
370
    25
100
AcDbLine
 10
930.6488649206
 20
595.2361272906
 30
0.0
 11
930.6489446171
 21
595.2271685289
 31
0.0
  0
LINE
  5
256
330
1F
100
AcDbEntity
  8
0
  6
Continuous
 62
     7
370
    25
100
AcDbLine
 10
935.1979712555
 20
595.302839372
 30
0.0
 11
935.1979972686
 21
595.2939957347
 31
0.0
  0
LINE
  5
257
330
1F
100
AcDbEntity
  8
0
  6
Continuous
 62
     7
370
    25
100
AcDbLine
 10
960.3358245468
 20
554.4084264268
 30
0.0
 11
972.0094090706
 21
567.3987526059
 31
0.0
  0
ARC
  5
258
330
1F
100
AcDbEntity
  8
0
  6
Continuous
 62
     7
370
    25
100
AcDbCircle
 10
968.520450179
 20
562.9528109365
 30
0.0
 40
5.651480467567722
100
AcDbArc
 50
40.9496313682
 51
51.8769008127
  0
LINE
  5
259
330
1F
100
AcDbEntity
  8
0
  6
Continuous
 62
     7
370
    25
100
AcDbLine
 10
959.0614446568
 20
595.1657518979
 30
0.0
 11
941.6066419805
 21
594.5732880559
 31
0.0
  0
ARC
  5
25A
330
1F
100
AcDbEntity
  8
0
  6
Continuous
 62
     7
370
    25
100
AcDbCircle
 10
953.4129962002
 20
595.3508505452
 30
0.0
 40
5.651480467569631
100
AcDbArc
 50
358.1230991873
 51
9.0503686318
  0
LINE
  5
25B
330
1F
100
AcDbEntity
  8
0
  6
Continuous
 62
     7
370
    25
100
AcDbLine
 10
972.0094090706
 20
567.3987526059
 30
0.0
 11
959.0614446568
 21
595.1657518979
 31
0.0
  0
ARC
  5
25C
330
1F
100
AcDbEntity
  8
0
  6
Continuous
 62
     7
370
    25
100
AcDbCircle
 10
972.7088316405
 20
566.4352395535
 30
0.0
 40
1.190608807908041
100
AcDbArc
 50
75.5914088265
 51
125.9762263586
  0
ARC
  5
25D
330
1F
100
AcDbEntity
  8
0
  6
Continuous
 62
     7
370
    25
100
AcDbCircle
 10
972.2293207043
 20
567.2775037687
 30
0.0
 40
0.8357538238403981
100
AcDbArc
 50
312.0355498024
 51
21.8386162463
  0
ARC
  5
25E
330
1F
100
AcDbEntity
  8
0
  6
Continuous
 62
     7
370
    25
100
AcDbCircle
 10
958.7729309989
 20
596.3208749228
 30
0.0
 40
1.190608807907357
100
AcDbArc
 50
284.0237736414
 51
334.4085911735
  0
ARC
  5
25F
330
1F
100
AcDbEntity
  8
0
  6
Continuous
 62
     7
370
    25
100
AcDbCircle
 10
959.1099191322
 20
595.4121512331
 30
0.0
 40
0.8357538238402302
100
AcDbArc
 50
28.1613837536
 51
97.9644501976
  0
LINE
  5
260
330
1F
100
AcDbEntity
  8
0
  6
Continuous
 62
     7
370
    25
100
AcDbLine
 10
959.8467378742
 20
595.8065908299
 30
0.0
 11
973.0050969235
 21
567.588398786
 31
0.0
  0
LINE
  5
261
330
1F
100
AcDbEntity
  8
0
  6
Continuous
 62
     7
370
    25
100
AcDbLine
 10
973.0050969235
 20
567.588398786
 30
0.0
 11
974.3937146162
 21
564.6104985341
 31
0.0
  0
LINE
  5
262
330
1F
100
AcDbEntity
  8
0
  6
Continuous
 62
     7
370
    25
100
AcDbLine
 10
958.4833782231
 20
598.7303250368
 30
0.0
 11
959.8467378742
 21
595.8065908299
 31
0.0
  0
SPLINE
  5
263
330
1F
100
AcDbEntity
  8
0
  6
Continuous
 62
     7
370
    25
100
AcDbSpline
210
0.0
220
0.0
230
1.0
 70
     8
 71
     3
 72
    11
 73
     7
 74
     0
 42
0.00000001
 43
0.00000001
 40
0.0
 40
0.0
 40
0.0
 40
0.0
 40
0.2933118760927446
 40
0.5865991201419534
 40
0.8805021461502969
 40
1.0
 40
1.0
 40
1.0
 40
1.0
 10
957.5624236641476
 20
599.3101224279127
 30
0.0
 10
957.6751245328328
 20
599.3004520035505
 30
0.0
 10
957.9005168056949
 20
599.2811119669389
 30
0.0
 10
958.2012732854012
 20
599.1119075941175
 30
0.0
 10
958.3897213449977
 20
598.911307117022
 30
0.0
 10
958.462376491947
 20
598.7709086764221
 30
0.0
 10
958.4833782230863
 20
598.7303250367808
 30
0.0
  0
LINE
  5
264
330
1F
100
AcDbEntity
  8
0
  6
Continuous
 62
     7
370
    25
100
AcDbLine
 10
955.2604315812
 20
542.4865097057
 30
0.0
 11
955.0902418336
 21
542.8331248107
 31
0.0
  0
LINE
  5
265
330
1F
100
AcDbEntity
  8
0
  6
Continuous
 62
     7
370
    25
100
AcDbLine
 10
955.0902418336
 20
542.8331248107
 30
0.0
 11
955.6273742779
 21
543.3993491531
 31
0.0
  0
LINE
  5
266
330
1F
100
AcDbEntity
  8
0
  6
Continuous
 62
     7
370
    25
100
AcDbLine
 10
955.6273742779
 20
543.3993491531
 30
0.0
 11
955.7564599
 21
543.1490123951
 31
0.0
  0
LINE
  5
267
330
1F
100
AcDbEntity
  8
0
  6
Continuous
 62
     7
370
    25
100
AcDbLine
 10
955.7564599
 20
543.1490123951
 30
0.0
 11
956.32703304
 21
543.7081904767
 31
0.0
  0
LINE
  5
268
330
1F
100
AcDbEntity
  8
0
  6
Continuous
 62
     7
370
    25
100
AcDbLine
 10
956.3270333759
 20
543.7081908612
 30
0.0
 11
956.2775014895
 21
543.7229682876
 31
0.0
  0
SPLINE
  5
269
330
1F
100
AcDbEntity
  8
0
  6
Continuous
 62
     7
370
    25
100
AcDbSpline
210
0.0
220
0.0
230
1.0
 70
     8
 71
     3
 72
    13
 73
     9
 74
     0
 42
0.00000001
 43
0.00000001
 40
0.0
 40
0.0
 40
0.0
 40
0.0
 40
0.2493543045038163
 40
0.3745592839651317
 40
0.499815922899262
 40
0.6250881401960762
 40
0.7503408382390299
 40
1.0
 40
1.0
 40
1.0
 40
1.0
 10
956.2775014894562
 20
543.7229682876235
 30
0.0
 10
956.274723471721
 20
543.7671072110234
 30
0.0
 10
956.2705505646769
 20
543.8334090283372
 30
0.0
 10
956.3703435354871
 20
544.0290433339646
 30
0.0
 10
956.478604631643
 20
544.2035069642475
 30
0.0
 10
956.6168640749303
 20
544.3997989684096
 30
0.0
 10
956.8368885539612
 20
544.6811988061053
 30
0.0
 10
957.03137649553
 20
544.8931985462785
 30
0.0
 10
957.1608887934074
 20
545.034372200942
 30
0.0
  0
SPLINE
  5
26A
330
1F
100
AcDbEntity
  8
0
  6
Continuous
 62
     7
370
    25
100
AcDbSpline
210
0.0
220
0.0
230
1.0
 70
     8
 71
     3
 72
    12
 73
     8
 74
     0
 42
0.00000001
 43
0.00000001
 40
0.0
 40
0.0
 40
0.0
 40
0.0
 40
0.2498028654790981
 40
0.4994346202762215
 40
0.6248766515627004
 40
0.7503055444071978
 40
1.0
 40
1.0
 40
1.0
 40
1.0
 10
957.1608887934074
 20
545.034372200942
 30
0.0
 10
957.3019745857852
 20
545.1774102583701
 30
0.0
 10
957.5840495291909
 20
545.4633883946082
 30
0.0
 10
957.9095167636597
 20
545.7179264625714
 30
0.0
 10
958.1168266383607
 20
545.8514758260104
 30
0.0
 10
958.2871940013803
 20
545.9358256045215
 30
0.0
 10
958.330595239808
 20
545.9079804893668
 30
0.0
 10
958.3594845335467
 20
545.8894458636272
 30
0.0
  0
SPLINE
  5
26B
330
1F
100
AcDbEntity
  8
0
  6
Continuous
 62
     7
370
    25
100
AcDbSpline
210
0.0
220
0.0
230
1.0
 70
     8
 71
     3
 72
    11
 73
     7
 74
     0
 42
0.00000001
 43
0.00000001
 40
0.0
 40
0.0
 40
0.0
 40
0.0
 40
0.2502196788634657
 40
0.5001112333607425
 40
0.7498631046960144
 40
1.0
 40
1.0
 40
1.0
 40
1.0
 10
958.3594845335466
 20
545.8894458636272
 30
0.0
 10
958.3624532946501
 20
545.8525782672839
 30
0.0
 10
958.3683869237867
 20
545.7788914207416
 30
0.0
 10
958.2128092360205
 20
545.5224449880019
 30
0.0
 10
957.9534220959625
 20
545.1845027331992
 30
0.0
 10
957.7251464903662
 20
544.9265623211929
 30
0.0
 10
957.6109207764313
 20
544.79749277985
 30
0.0
  0
LINE
  5
26C
330
1F
100
AcDbEntity
  8
0
  6
Continuous
 62
     7
370
    25
100
AcDbLine
 10
957.6109207764
 20
544.7974927799
 30
0.0
 11
957.5675065736
 21
544.917534866
 31
0.0
  0
SPLINE
  5
26D
330
1F
100
AcDbEntity
  8
0
  6
Continuous
 62
     7
370
    25
100
AcDbSpline
210
0.0
220
0.0
230
1.0
 70
     8
 71
     3
 72
    11
 73
     7
 74
     0
 42
0.00000001
 43
0.00000001
 40
0.0
 40
0.0
 40
0.0
 40
0.0
 40
0.2502373245452479
 40
0.5001322908481907
 40
0.7500311917628704
 40
1.0
 40
1.0
 40
1.0
 40
1.0
 10
957.5675065736032
 20
544.9175348660183
 30
0.0
 10
957.6063468703684
 20
544.9653675165796
 30
0.0
 10
957.6839743251611
 20
545.060967376217
 30
0.0
 10
957.768842778503
 20
545.1831678476359
 30
0.0
 10
957.8207806075225
 20
545.2786710348612
 30
0.0
 10
957.8182360247145
 20
545.3075312229967
 30
0.0
 10
957.8169635553782
 20
545.321963335137
 30
0.0
  0
SPLINE
  5
26E
330
1F
100
AcDbEntity
  8
0
  6
Continuous
 62
     7
370
    25
100
AcDbSpline
210
0.0
220
0.0
230
1.0
 70
     8
 71
     3
 72
    13
 73
     9
 74
     0
 42
0.00000001
 43
0.00000001
 40
0.0
 40
0.0
 40
0.0
 40
0.0
 40
0.2491932630053192
 40
0.3727688067666555
 40
0.4996942703245016
 40
0.6266506604059406
 40
0.7501701356630105
 40
1.0
 40
1.0
 40
1.0
 40
1.0
 10
957.8169633073032
 20
545.3219644455628
 30
0.0
 10
957.8034611760713
 20
545.3298279213204
 30
0.0
 10
957.7832633051999
 20
545.3415909137861
 30
0.0
 10
957.7045448122419
 20
545.2987129156922
 30
0.0
 10
957.631789728445
 20
545.2483885846642
 30
0.0
 10
957.5480255802529
 20
545.1818622095108
 30
0.0
 10
957.4256323448924
 20
545.0739459242511
 30
0.0
 10
957.32949459659
 20
544.975372002273
 30
0.0
 10
957.265163210221
 20
544.9094104297102
 30
0.0
  0
SPLINE
  5
26F
330
1F
100
AcDbEntity
  8
0
  6
Continuous
 62
     7
370
    25
100
AcDbSpline
210
0.0
220
0.0
230
1.0
 70
     8
 71
     3
 72
    13
 73
     9
 74
     0
 42
0.00000001
 43
0.00000001
 40
0.0
 40
0.0
 40
0.0
 40
0.0
 40
0.2498529225465038
 40
0.499075912210093
 40
0.6270534981711595
 40
0.7495365195382834
 40
0.8746685801292089
 40
1.0
 40
1.0
 40
1.0
 40
1.0
 10
957.265163210221
 20
544.9094104297102
 30
0.0
 10
957.2051069148845
 20
544.8444437790861
 30
0.0
 10
957.0851457390313
 20
544.7146742727178
 30
0.0
 10
956.9591287608367
 20
544.5521834517436
 30
0.0
 10
956.8853723439395
 20
544.4422805235256
 30
0.0
 10
956.8457851459522
 20
544.3724737126787
 30
0.0
 10
956.8251248673669
 20
544.3200006765366
 30
0.0
 10
956.828511301087
 20
544.3025699132563
 30
0.0
 10
956.8302058656824
 20
544.2938475945082
 30
0.0
  0
SPLINE
  5
270
330
1F
100
AcDbEntity
  8
0
  6
Continuous
 62
     7
370
    25
100
AcDbSpline
210
0.0
220
0.0
230
1.0
 70
     8
 71
     3
 72
    10
 73
     6
 74
     0
 42
0.00000001
 43
0.00000001
 40
0.0
 40
0.0
 40
0.0
 40
0.0
 40
0.2500260122915895
 40
0.5002362707123028
 40
1.0
 40
1.0
 40
1.0
 40
1.0
 10
956.8302061333616
 20
544.293846239313
 30
0.0
 10
956.8370565243613
 20
544.2888520796209
 30
0.0
 10
956.8507623544679
 20
544.2788600800017
 30
0.0
 10
956.9235722188843
 20
544.3118942464951
 30
0.0
 10
957.0047980198062
 20
544.3729115736438
 30
0.0
 10
957.0589248426674
 20
544.4135719798271
 30
0.0
  0
LINE
  5
271
330
1F
100
AcDbEntity
  8
0
  6
Continuous
 62
     7
370
    25
100
AcDbLine
 10
957.0589251729
 20
544.4135722364
 30
0.0
 11
956.9904931951
 21
544.2046861476
 31
0.0
  0
LINE
  5
272
330
1F
100
AcDbEntity
  8
0
  6
Continuous
 62
     7
370
    25
100
AcDbLine
 10
956.9904931951
 20
544.2046861476
 30
0.0
 11
955.2604315812
 21
542.4865097057
 31
0.0
  0
LINE
  5
273
330
1F
100
AcDbEntity
  8
0
  6
Continuous
 62
     7
370
    25
100
AcDbLine
 10
955.6273742779
 20
543.3993491531
 30
0.0
 11
955.6201801021
 21
543.4059892608
 31
0.0
  0
LINE
  5
274
330
1F
100
AcDbEntity
  8
0
  6
Continuous
 62
     7
370
    25
100
AcDbLine
 10
955.0902418336
 20
542.8331248107
 30
0.0
 11
955.083047304
 21
542.839765677
 31
0.0
  0
LINE
  5
275
330
1F
100
AcDbEntity
  8
0
  6
Continuous
 62
     7
370
    25
100
AcDbLine
 10
955.2604315812
 20
542.4865097057
 30
0.0
 11
955.2531880964
 21
542.4932555568
 31
0.0
  0
LINE
  5
276
330
1F
100
AcDbEntity
  8
0
  6
Continuous
 62
     7
370
    25
100
AcDbLine
 10
957.1608887934
 20
545.0343722009
 30
0.0
 11
957.1536974505
 21
545.0410062335
 31
0.0
  0
LINE
  5
277
330
1F
100
AcDbEntity
  8
0
  6
Continuous
 62
     7
370
    25
100
AcDbLine
 10
956.2775014895
 20
543.7229682876
 30
0.0
 11
956.270273372
 21
543.7296811835
 31
0.0
  0
LINE
  5
278
330
1F
100
AcDbEntity
  8
0
  6
Continuous
 62
     7
370
    25
100
AcDbLine
 10
957.8169633073
 20
545.3219644456
 30
0.0
 11
957.8097329783
 21
545.3286820842
 31
0.0
  0
LINE
  5
279
330
1F
100
AcDbEntity
  8
0
  6
Continuous
 62
     7
370
    25
100
AcDbLine
 10
957.0589251729
 20
544.4135722364
 30
0.0
 11
957.0516843158
 21
544.4203124524
 31
0.0
  0
LINE
  5
27A
330
1F
100
AcDbEntity
  8
0
  6
Continuous
 62
     7
370
    25
100
AcDbLine
 10
956.8302061334
 20
544.2938462393
 30
0.0
 11
956.8229769292
 21
544.3005614656
 31
0.0
  0
LINE
  5
27B
330
1F
100
AcDbEntity
  8
0
  6
Continuous
 62
     7
370
    25
100
AcDbLine
 10
957.5675065736
 20
544.917534866
 30
0.0
 11
957.5602625199
 21
544.9242819373
 31
0.0
  0
LINE
  5
27C
330
1F
100
AcDbEntity
  8
0
  6
Continuous
 62
     7
370
    25
100
AcDbLine
 10
957.6109207764
 20
544.7974927799
 30
0.0
 11
957.6036606517
 21
544.8042743156
 31
0.0
  0
LINE
  5
27D
330
1F
100
AcDbEntity
  8
0
  6
Continuous
 62
     7
370
    25
100
AcDbLine
 10
932.9369873671
 20
573.4188134318
 30
0.0
 11
938.5578102482
 21
561.3649198642
 31
0.0
  0
LINE
  5
27E
330
1F
100
AcDbEntity
  8
0
  6
Continuous
 62
     7
370
    25
100
AcDbLine
 10
929.2788991114
 20
572.9819034708
 30
0.0
 11
935.8717439946
 21
558.8435019931
 31
0.0
  0
LINE
  5
27F
330
1F
100
AcDbEntity
  8
0
  6
Continuous
 62
     7
370
    25
100
AcDbLine
 10
922.7767338206
 20
591.9059199467
 30
0.0
 11
919.9154107801
 21
590.6957674143
 31
0.0
  0
LINE
  5
280
330
1F
100
AcDbEntity
  8
0
  6
Continuous
 62
     7
370
    25
100
AcDbLine
 10
943.4226167519
 20
540.2844015261
 30
0.0
 11
946.1888703723
 21
541.6984310876
 31
0.0
  0
LINE
  5
281
330
1F
100
AcDbEntity
  8
0
  6
Continuous
 62
     7
370
    25
100
AcDbLine
 10
925.2780693359
 20
591.0265169448
 30
0.0
 11
947.1230360664
 21
544.179834613
 31
0.0
  0
ARC
  5
282
330
1F
100
AcDbEntity
  8
0
  6
Continuous
 62
     7
370
    25
100
AcDbCircle
 10
945.3515977229
 20
543.4301792058
 30
0.0
 40
1.923532436518332
100
AcDbArc
 50
295.8030276957
 51
22.9376068066
  0
ARC
  5
283
330
1F
100
AcDbEntity
  8
0
  6
Continuous
 62
     7
370
    25
100
AcDbCircle
 10
923.5651413585
 20
590.1513856527
 30
0.0
 40
1.923532436518211
100
AcDbArc
 50
27.0623931934
 51
114.1969723043
  0
SPLINE
  5
284
330
1F
100
AcDbEntity
  8
0
  6
Continuous
 62
     7
370
    25
100
AcDbSpline
210
0.0
220
0.0
230
1.0
 70
     8
 71
     3
 72
    11
 73
     7
 74
     0
 42
0.00000001
 43
0.00000001
 40
0.0
 40
0.0
 40
0.0
 40
0.0
 40
0.2835227646035608
 40
0.5667788824160982
 40
0.8499302227267697
 40
1.0
 40
1.0
 40
1.0
 40
1.0
 10
946.1888703723232
 20
541.6984310875984
 30
0.0
 10
946.2388545609217
 20
541.607310040362
 30
0.0
 10
946.338775929112
 20
541.4251536431874
 30
0.0
 10
946.5705023103435
 20
540.9354097708303
 30
0.0
 10
946.7912665997544
 20
540.4420494344029
 30
0.0
 10
946.925838842376
 20
540.127120609753
 30
0.0
 10
946.9724552829364
 20
540.0180278239817
 30
0.0
  0
LWPOLYLINE
  5
285
330
1F
100
AcDbEntity
  8
0
  6
Continuous
 62
     7
370
    25
100
AcDbPolyline
 90
        3
 70
   128
 43
0.0
 10
946.9724552829
 20
540.018027824
 10
946.4788704884
 20
539.7662018879
 10
944.205116424
 20
538.606325564
  0
LWPOLYLINE
  5
286
330
1F
100
AcDbEntity
  8
0
  6
Continuous
 62
     7
370
    25
100
AcDbPolyline
 90
        3
 70
   128
 43
0.0
 10
919.132911108
 20
592.3738433764
 10
921.4829688608
 20
593.3700859128
 10
921.99314891
 20
593.5863232103
  0
SPLINE
  5
287
330
1F
100
AcDbEntity
  8
0
  6
Continuous
 62
     7
370
    25
100
AcDbSpline
210
0.0
220
0.0
230
1.0
 70
     8
 71
     3
 72
    11
 73
     7
 74
     0
 42
0.00000001
 43
0.00000001
 40
0.0
 40
0.0
 40
0.0
 40
0.0
 40
0.2835227523786509
 40
0.5667788888046829
 40
0.8499302218873809
 40
1.0
 40
1.0
 40
1.0
 40
1.0
 10
921.9931489099931
 20
593.5863232102863
 30
0.0
 10
922.0943754550051
 20
593.385310961824
 30
0.0
 10
922.2967333547433
 20
592.983475490548
 30
0.0
 10
922.5514145514237
 20
592.4445113063172
 30
0.0
 10
922.7086341954837
 20
592.0874258696988
 30
0.0
 10
922.7592130675497
 20
591.9526180077819
 30
0.0
 10
922.7767338206063
 20
591.9059199466697
 30
0.0
  0
LINE
  5
288
330
1F
100
AcDbEntity
  8
0
  6
Continuous
 62
     7
370
    25
100
AcDbLine
 10
948.6902058876
 20
540.8190280858
 30
0.0
 11
946.9724552829
 21
540.018027824
 31
0.0
  0
SPLINE
  5
289
330
1F
100
AcDbEntity
  8
0
  6
Continuous
 62
     7
370
    25
100
AcDbSpline
210
0.0
220
0.0
230
1.0
 70
    24
 71
     3
 72
    11
 73
     7
 74
     0
 42
0.00000001
 43
0.00000001
 40
0.0
 40
0.0
 40
0.0
 40
0.0
 40
0.1499516226907157
 40
0.4331749578253697
 40
0.7165923401616971
 40
1.0
 40
1.0
 40
1.0
 40
1.0
 10
948.6902058876396
 20
540.8190280857552
 30
0.0
 10
948.5900825621447
 20
541.0337432501833
 30
0.0
 10
948.3008498314792
 20
541.6540048427332
 30
0.0
 10
947.8445117254341
 20
542.6326250692393
 30
0.0
 10
947.3867452398821
 20
543.6143084654833
 30
0.0
 10
947.2109381190559
 20
543.9913280527699
 30
0.0
 10
947.1230360664135
 20
544.1798346129884
 30
0.0
  0
LINE
  5
28A
330
1F
100
AcDbEntity
  8
0
  6
Continuous
 62
     7
370
    25
100
AcDbLine
 10
923.7108995147
 20
594.3873234721
 30
0.0
 11
921.99314891
 21
593.5863232103
 31
0.0
  0
SPLINE
  5
28B
330
1F
100
AcDbEntity
  8
0
  6
Continuous
 62
     7
370
    25
100
AcDbSpline
210
0.0
220
0.0
230
1.0
 70
    24
 71
     3
 72
    11
 73
     7
 74
     0
 42
0.00000001
 43
0.00000001
 40
0.0
 40
0.0
 40
0.0
 40
0.0
 40
0.1499515950756915
 40
0.433174943223205
 40
0.7165923323728134
 40
1.0
 40
1.0
 40
1.0
 40
1.0
 10
925.2780693359227
 20
591.0265169448267
 30
0.0
 10
925.2359108205133
 20
591.1169261728808
 30
0.0
 10
925.1141247700903
 20
591.3780972008345
 30
0.0
 10
924.7841882611881
 20
592.0856483275029
 30
0.0
 10
924.2808602071275
 20
593.1650388227231
 30
0.0
 10
923.900884239872
 20
593.97989991413
 30
0.0
 10
923.7108995146965
 20
594.3873234720598
 30
0.0
  0
LINE
  5
28C
330
1F
100
AcDbEntity
  8
0
  6
Continuous
 62
     7
370
    25
100
AcDbLine
 10
910.5866540932
 20
610.8250906747
 30
0.0
 11
911.0023288148
 21
610.9930341637
 31
0.0
  0
SPLINE
  5
28D
330
1F
100
AcDbEntity
  8
0
  6
Continuous
 62
     7
370
    25
100
AcDbSpline
210
0.0
220
0.0
230
1.0
 70
     8
 71
     3
 72
    14
 73
    10
 74
     0
 42
0.00000001
 43
0.00000001
 40
0.0
 40
0.0
 40
0.0
 40
0.0
 40
0.0000064140457922
 40
0.0730558909548031
 40
0.2154935957733517
 40
0.4037789030075343
 40
0.5887468703998125
 40
0.8882363243876841
 40
1.0
 40
1.0
 40
1.0
 40
1.0
 10
911.002328814759
 20
610.993034163674
 30
0.0
 10
911.0023473547288
 20
610.9930416541758
 30
0.0
 10
911.2135173476321
 20
611.0783583644335
 30
0.0
 10
911.8645322827985
 20
611.2645004869505
 30
0.0
 10
913.1424631855563
 20
611.2703657869283
 30
0.0
 10
914.7140751588109
 20
610.7963273915825
 30
0.0
 10
916.4057462519075
 20
609.4894955117326
 30
0.0
 10
917.3985637642529
 20
607.8779100769518
 30
0.0
 10
917.9536911771008
 20
606.7238110421615
 30
0.0
 10
918.1045546614794
 20
606.410168808547
 30
0.0
  0
LINE
  5
28E
330
1F
100
AcDbEntity
  8
0
  6
Continuous
 62
     7
370
    25
100
AcDbLine
 10
918.1045546615
 20
606.4101688085
 30
0.0
 11
916.3868040568
 21
605.6091685468
 31
0.0
  0
SPLINE
  5
28F
330
1F
100
AcDbEntity
  8
0
  6
Continuous
 62
     7
370
    25
100
AcDbSpline
210
0.0
220
0.0
230
1.0
 70
     8
 71
     3
 72
    13
 73
     9
 74
     0
 42
0.00000001
 43
0.00000001
 40
0.0
 40
0.0
 40
0.0
 40
0.0
 40
0.2359779310481754
 40
0.4700664405346315
 40
0.6281567545471067
 40
0.7867756990089787
 40
0.8916100492377141
 40
1.0
 40
1.0
 40
1.0
 40
1.0
 10
916.386804056776
 20
605.6091685467735
 30
0.0
 10
916.1571494650988
 20
606.0908066538767
 30
0.0
 10
915.6996790737672
 20
607.0502265014287
 30
0.0
 10
914.8847506499167
 20
608.2311595565235
 30
0.0
 10
913.8914486717252
 20
609.0207191907715
 30
0.0
 10
912.960510582724
 20
609.295660460577
 30
0.0
 10
912.1027068084404
 20
609.3121285881562
 30
0.0
 10
911.6572033605914
 20
609.1151121138051
 30
0.0
 10
911.4307371625439
 20
609.0149612123599
 30
0.0
  0
SPLINE
  5
290
330
1F
100
AcDbEntity
  8
0
  6
Continuous
 62
     7
370
    25
100
AcDbSpline
210
0.0
220
0.0
230
1.0
 70
     8
 71
     3
 72
    15
 73
    11
 74
     0
 42
0.00000001
 43
0.00000001
 40
0.0
 40
0.0
 40
0.0
 40
0.0
 40
0.0125258348254365
 40
0.2274813423993958
 40
0.4424404001139788
 40
0.4999991538737443
 40
0.7148754688633551
 40
0.9297494848186605
 40
0.9874741202829789
 40
1.0
 40
1.0
 40
1.0
 40
1.0
 10
911.4307371625439
 20
609.0149612123599
 30
0.0
 10
911.4255345357103
 20
609.0269186503019
 30
0.0
 10
911.3310497726089
 20
609.2440773525037
 30
0.0
 10
911.1445588589594
 20
609.667091395702
 30
0.0
 10
910.9598271557345
 20
610.0748092908324
 30
0.0
 10
910.8022302158843
 20
610.4147705340454
 30
0.0
 10
910.6724125940585
 20
610.6856342410836
 30
0.0
 10
910.6039441412892
 20
610.8103902161383
 30
0.0
 10
910.5889690318738
 20
610.8254471430704
 30
0.0
 10
910.5870043940693
 20
610.8251446162028
 30
0.0
 10
910.586654093196
 20
610.8250906747458
 30
0.0
  0
LINE
  5
291
330
1F
100
AcDbEntity
  8
0
  6
Continuous
 62
     7
370
    25
100
AcDbLine
 10
911.4307371625
 20
609.0149612124
 30
0.0
 11
911.3833372024
 21
608.992858248
 31
0.0
  0
LINE
  5
292
330
1F
100
AcDbEntity
  8
0
  6
Continuous
 62
     7
370
    25
100
AcDbLine
 10
921.99314891
 20
593.5863232103
 30
0.0
 11
916.3868040568
 21
605.6091685468
 31
0.0
  0
LINE
  5
293
330
1F
100
AcDbEntity
  8
0
  6
Continuous
 62
     7
370
    25
100
AcDbLine
 10
958.9180740623
 20
514.4005656819
 30
0.0
 11
946.9724552829
 21
540.018027824
 31
0.0
  0
LINE
  5
294
330
1F
100
AcDbEntity
  8
0
  6
Continuous
 62
     7
370
    25
100
AcDbLine
 10
959.7794940228
 20
512.1230615284
 30
0.0
 11
958.9180740623
 21
514.4005656819
 31
0.0
  0
LINE
  5
295
330
1F
100
AcDbEntity
  8
0
  6
Continuous
 62
     7
370
    25
100
AcDbLine
 10
959.7794940228
 20
512.1230615284
 30
0.0
 11
957.1304753739
 21
510.8878038458
 31
0.0
  0
SPLINE
  5
296
330
1F
100
AcDbEntity
  8
0
  6
Continuous
 62
     7
370
    25
100
AcDbSpline
210
0.0
220
0.0
230
1.0
 70
     8
 71
     3
 72
     9
 73
     5
 74
     0
 42
0.00000001
 43
0.00000001
 40
0.0
 40
0.0
 40
0.0
 40
0.0
 40
0.0000220488581531
 40
1.0
 40
1.0
 40
1.0
 40
1.0
 10
960.6358246669673
 20
515.2015659437184
 30
0.0
 10
960.6358331193286
 20
515.20154781756
 30
0.0
 10
961.0191800065027
 20
514.379457249661
 30
0.0
 10
961.310118066568
 20
513.5183630065916
 30
0.0
 10
961.6010497117813
 20
512.657287749667
 30
0.0
  0
SPLINE
  5
297
330
1F
100
AcDbEntity
  8
0
  6
Continuous
 62
     7
370
    25
100
AcDbSpline
210
0.0
220
0.0
230
1.0
 70
     8
 71
     3
 72
    11
 73
     7
 74
     0
 42
0.00000001
 43
0.00000001
 40
0.0
 40
0.0
 40
0.0
 40
0.0
 40
0.2499768814483566
 40
0.4998058427177819
 40
0.7495361389819631
 40
1.0
 40
1.0
 40
1.0
 40
1.0
 10
961.6010497117813
 20
512.657287749667
 30
0.0
 10
961.5757001428187
 20
512.6432568282422
 30
0.0
 10
961.5250160051319
 20
512.615203287986
 30
0.0
 10
961.1101946796512
 20
512.4879390121896
 30
0.0
 10
960.5101634326372
 20
512.3175406228283
 30
0.0
 10
960.0232885031792
 20
512.1879512434039
 30
0.0
 10
959.7794940227968
 20
512.1230615283902
 30
0.0
  0
LINE
  5
298
330
1F
100
AcDbEntity
  8
0
  6
Continuous
 62
     7
370
    25
100
AcDbLine
 10
960.635824667
 20
515.2015659437
 30
0.0
 11
958.9180740623
 21
514.4005656819
 31
0.0
  0
LINE
  5
299
330
1F
100
AcDbEntity
  8
0
  6
Continuous
 62
     7
370
    25
100
AcDbLine
 10
910.5866540932
 20
610.8250906747
 30
0.0
 11
910.5381006789
 21
610.805473822
 31
0.0
  0
SPLINE
  5
29A
330
1F
100
AcDbEntity
  8
0
  6
Continuous
 62
     7
370
    25
100
AcDbSpline
210
0.0
220
0.0
230
1.0
 70
     8
 71
     3
 72
    11
 73
     7
 74
     0
 42
0.00000001
 43
0.00000001
 40
0.0
 40
0.0
 40
0.0
 40
0.0
 40
0.2440033155519331
 40
0.4919416665609669
 40
0.7439093003483749
 40
1.0
 40
1.0
 40
1.0
 40
1.0
 10
960.4143531791372
 20
510.8139077232886
 30
0.0
 10
960.3774107448961
 20
510.8969264712974
 30
0.0
 10
960.3029301066874
 20
511.0643028086184
 30
0.0
 10
960.1500340694745
 20
511.385096339406
 30
0.0
 10
959.9741890382513
 20
511.7428318586288
 30
0.0
 10
959.8447425287392
 20
511.9956344455296
 30
0.0
 10
959.7794940227968
 20
512.1230615283902
 30
0.0
  0
LINE
  5
29B
330
1F
100
AcDbEntity
  8
0
  6
Continuous
 62
     7
370
    25
100
AcDbLine
 10
960.4143531791
 20
510.8139077233
 30
0.0
 11
957.7967136078
 21
509.4590513423
 31
0.0
  0
SPLINE
  5
29C
330
1F
100
AcDbEntity
  8
0
  6
Continuous
 62
     7
370
    25
100
AcDbSpline
210
0.0
220
0.0
230
1.0
 70
     8
 71
     3
 72
    11
 73
     7
 74
     0
 42
0.00000001
 43
0.00000001
 40
0.0
 40
0.0
 40
0.0
 40
0.0
 40
0.2501480011265462
 40
0.5002880311524636
 40
0.7504202668475309
 40
1.0
 40
1.0
 40
1.0
 40
1.0
 10
961.6010497117813
 20
512.6572877496669
 30
0.0
 10
961.6227029548994
 20
512.4834576362242
 30
0.0
 10
961.6660087511433
 20
512.1358029485291
 30
0.0
 10
961.4338700386766
 20
511.6030219901956
 30
0.0
 10
961.0168899639368
 20
511.1279029313292
 30
0.0
 10
960.6150506772723
 20
510.9184956161276
 30
0.0
 10
960.4143531791372
 20
510.8139077232886
 30
0.0
  0
LINE
  5
29D
330
1F
100
AcDbEntity
  8
0
  6
Continuous
 62
     7
370
    25
100
AcDbLine
 10
918.1045546615
 20
606.4101688085
 30
0.0
 11
923.7108995147
 21
594.3873234721
 31
0.0
  0
LINE
  5
29E
330
1F
100
AcDbEntity
  8
0
  6
Continuous
 62
     7
370
    25
100
AcDbLine
 10
948.6902058876
 20
540.8190280858
 30
0.0
 11
960.635824667
 21
515.2015659437
 31
0.0
  0
SPLINE
  5
29F
330
1F
100
AcDbEntity
  8
0
  6
Continuous
 62
     7
370
    25
100
AcDbSpline
210
0.0
220
0.0
230
1.0
 70
     8
 71
     3
 72
    14
 73
    10
 74
     0
 42
0.00000001
 43
0.00000001
 40
0.0
 40
0.0
 40
0.0
 40
0.0
 40
0.0024045749465543
 40
0.0051901321609213
 40
0.0347267574258743
 40
0.2932094380103025
 40
0.5746449636639234
 40
0.7844996086191866
 40
1.0
 40
1.0
 40
1.0
 40
1.0
 10
959.5812804303578
 20
506.8151362329251
 30
0.0
 10
959.5831503602175
 20
506.8161346389219
 30
0.0
 10
959.587186492723
 20
506.8182896389488
 30
0.0
 10
959.6141498742608
 20
506.8329571230931
 30
0.0
 10
959.8381481893639
 20
506.9661684775719
 30
0.0
 10
960.2486983388454
 20
507.4104099736481
 30
0.0
 10
960.6578268970577
 20
508.400534845411
 30
0.0
 10
960.7261250467376
 20
509.5581327510748
 30
0.0
 10
960.5191926742613
 20
510.3916283974156
 30
0.0
 10
960.4143531791372
 20
510.8139077232886
 30
0.0
  0
SPLINE
  5
2A0
330
1F
100
AcDbEntity
  8
0
  6
Continuous
 62
     7
370
    25
100
AcDbSpline
210
0.0
220
0.0
230
1.0
 70
     8
 71
     3
 72
    20
 73
    16
 74
     0
 42
0.00000001
 43
0.00000001
 40
0.0
 40
0.0
 40
0.0
 40
0.0
 40
0.2070577373168111
 40
0.4203770502760563
 40
0.7011163025568196
 40
0.8834527988428843
 40
0.9282286404933973
 40
0.9524788585968361
 40
0.9675018207221251
 40
0.9773827146381969
 40
0.9840938553685633
 40
0.9887393639097097
 40
0.9919933949589129
 40
0.997734080022261
 40
1.0
 40
1.0
 40
1.0
 40
1.0
 10
961.6010497117813
 20
512.657287749667
 30
0.0
 10
961.7059150453946
 20
512.1681732774068
 30
0.0
 10
961.918816916109
 20
511.1751531577025
 30
0.0
 10
961.7203856074841
 20
509.4663956708621
 30
0.0
 10
961.0862987134851
 20
508.1695818492369
 30
0.0
 10
960.4155451978797
 20
507.4018947223483
 30
0.0
 10
960.0051934473781
 20
507.08036860564
 30
0.0
 10
959.8597104479471
 20
506.9802731264678
 30
0.0
 10
959.7718143075294
 20
506.9244015435178
 30
0.0
 10
959.7141395253745
 20
506.8896298103493
 30
0.0
 10
959.6748882267533
 20
506.8668140762963
 30
0.0
 10
959.6476481978286
 20
506.8513795803008
 30
0.0
 10
959.6220628485577
 20
506.837146285641
 30
0.0
 10
959.6008054465776
 20
506.8255525184954
 30
0.0
 10
959.5855872706173
 20
506.8174338636949
 30
0.0
 10
959.5812804303578
 20
506.8151362329251
 30
0.0
  0
SPLINE
  5
2A1
330
1F
100
AcDbEntity
  8
0
  6
Continuous
 62
     7
370
    25
100
AcDbSpline
210
0.0
220
0.0
230
1.0
 70
     8
 71
     3
 72
    10
 73
     6
 74
     0
 42
0.00000001
 43
0.00000001
 40
0.0
 40
0.0
 40
0.0
 40
0.0
 40
0.454981938848555
 40
0.9100842687529549
 40
1.0
 40
1.0
 40
1.0
 40
1.0
 10
961.7231314539615
 20
509.8603658498045
 30
0.0
 10
961.7306910576195
 20
509.9129882427474
 30
0.0
 10
961.7458122652538
 20
510.0182469528465
 30
0.0
 10
961.8692621455555
 20
510.4971835703143
 30
0.0
 10
961.827886353823
 20
510.9688196784523
 30
0.0
 10
961.8210602780749
 20
511.0466290366525
 30
0.0
  0
SPLINE
  5
2A2
330
1F
100
AcDbEntity
  8
0
  6
Continuous
 62
     7
370
    25
100
AcDbSpline
210
0.0
220
0.0
230
1.0
 70
     8
 71
     3
 72
    13
 73
     9
 74
     0
 42
0.00000001
 43
0.00000001
 40
0.0
 40
0.0
 40
0.0
 40
0.0
 40
0.04981524606135
 40
0.5246610133685361
 40
0.7622666482266702
 40
0.9272239231720495
 40
0.9752188194075073
 40
0.9999999999999999
 40
0.9999999999999999
 40
0.9999999999999999
 40
0.9999999999999999
 10
961.6035564403708
 20
512.6414922781022
 30
0.0
 10
961.6009117738918
 20
512.6538053466647
 30
0.0
 10
961.5730577833052
 20
512.7834882758972
 30
0.0
 10
961.5063524352498
 20
512.9963684685029
 30
0.0
 10
961.4311232392789
 20
513.2369189046403
 30
0.0
 10
961.3893484111169
 20
513.3615461133718
 30
0.0
 10
961.3668777992312
 20
513.4272025806048
 30
0.0
 10
961.3599329511293
 20
513.4472910822641
 30
0.0
 10
961.3575681419435
 20
513.4541314728037
 30
0.0
  0
LINE
  5
2A3
330
1F
100
AcDbEntity
  8
0
  6
Continuous
 62
     7
370
    25
100
AcDbLine
 10
916.7347148213
 20
608.6713131566
 30
0.0
 11
916.2891020979
 21
609.4062021744
 31
0.0
  0
LINE
  5
2A4
330
1F
100
AcDbEntity
  8
0
  6
Continuous
 62
     7
370
    25
100
AcDbLine
 10
960.6820064141
 20
515.1020204831
 30
0.0
 11
960.6399724567
 21
515.1926669717
 31
0.0
  0
SPLINE
  5
2A5
330
1F
100
AcDbEntity
  8
0
  6
Continuous
 62
     7
370
    25
100
AcDbSpline
210
0.0
220
0.0
230
1.0
 70
     8
 71
     3
 72
    13
 73
     9
 74
     0
 42
0.00000001
 43
0.00000001
 40
0.0
 40
0.0
 40
0.0
 40
0.0
 40
0.1254648118065524
 40
0.2502435788816462
 40
0.3760698054095837
 40
0.501913920169423
 40
0.7508310514861729
 40
1.0
 40
1.0
 40
1.0
 40
1.0
 10
916.2891020975134
 20
609.4062021748288
 30
0.0
 10
916.2014251252233
 20
609.5034744531939
 30
0.0
 10
916.0265506005222
 20
609.6974871226711
 30
0.0
 10
915.7528685683415
 20
609.9568872599203
 30
0.0
 10
915.4858679413159
 20
610.1803594283144
 30
0.0
 10
915.1610089256062
 20
610.4188331823468
 30
0.0
 10
914.828322585864
 20
610.616394017781
 30
0.0
 10
914.7754078959296
 20
610.643358217995
 30
0.0
 10
914.748937174932
 20
610.6568471342424
 30
0.0
  0
SPLINE
  5
2A6
330
1F
100
AcDbEntity
  8
0
  6
Continuous
 62
     7
370
    25
100
AcDbSpline
210
0.0
220
0.0
230
1.0
 70
     8
 71
     3
 72
     9
 73
     5
 74
     0
 42
0.00000001
 43
0.00000001
 40
0.0
 40
0.0
 40
0.0
 40
0.0
 40
0.5000138394956939
 40
1.0
 40
1.0
 40
1.0
 40
1.0
 10
961.1498132541407
 20
514.0143852020561
 30
0.0
 10
961.0818438417028
 20
514.1831021973559
 30
0.0
 10
960.9459087793725
 20
514.5205268483813
 30
0.0
 10
960.7699722459097
 20
514.9081928482619
 30
0.0
 10
960.6820064140511
 20
515.1020204831003
 30
0.0
  0
SPLINE
  5
2A7
330
1F
100
AcDbEntity
  8
0
  6
Continuous
 62
     7
370
    25
100
AcDbSpline
210
0.0
220
0.0
230
1.0
 70
     8
 71
     3
 72
     9
 73
     5
 74
     0
 42
0.00000001
 43
0.00000001
 40
0.0
 40
0.0
 40
0.0
 40
0.0
 40
0.7838918077603529
 40
1.0
 40
1.0
 40
1.0
 40
1.0
 10
961.8392669517971
 20
510.8515022335638
 30
0.0
 10
961.8454813377673
 20
510.8690800680359
 30
0.0
 10
961.8534089444966
 20
510.8915038697621
 30
0.0
 10
961.8302214295261
 20
511.1820173955637
 30
0.0
 10
961.8252104175833
 20
511.2447997484458
 30
0.0
  0
LINE
  5
2A8
330
1F
100
AcDbEntity
  8
0
  6
Continuous
 62
     7
370
    25
100
AcDbLine
 10
961.5799989674
 20
512.7326735484
 30
0.0
 11
961.1498132541
 21
514.0143852021
 31
0.0
  0
LINE
  5
2A9
330
1F
100
AcDbEntity
  8
0
  6
Continuous
 62
     7
370
    25
100
AcDbLine
 10
961.3575681421
 20
513.4541314722
 30
0.0
 11
961.1884639876
 21
513.8992277388
 31
0.0
  0
LWPOLYLINE
  5
2AA
330
1F
100
AcDbEntity
  8
0
  6
Continuous
 62
     7
370
    25
100
AcDbPolyline
 90
        3
 70
   128
 43
0.0
 10
916.7937992589
 20
633.8519867924
 10
916.9060027794
 20
633.9103962481
 10
916.97506557
 20
633.9528877314
  0
ARC
  5
2AB
330
1F
100
AcDbEntity
  8
0
  6
Continuous
 62
     7
370
    25
100
AcDbCircle
 10
904.8937790761
 20
625.9858226191
 30
0.0
 40
2.100000000000093
100
AcDbArc
 50
115.0
 51
205.0
  0
LINE
  5
2AC
330
1F
100
AcDbEntity
  8
0
  6
Continuous
 62
     7
370
    25
100
AcDbLine
 10
904.0062807264
 20
627.8890689719
 30
0.0
 11
916.7937992589
 21
633.8519867924
 31
0.0
  0
LINE
  5
2AD
330
1F
100
AcDbEntity
  8
0
  6
Continuous
 62
     7
370
    25
100
AcDbLine
 10
903.7155789529
 20
625.4364188788
 30
0.0
 11
902.9905327233
 21
625.0983242694
 31
0.0
  0
LINE
  5
2AE
330
1F
100
AcDbEntity
  8
0
  6
Continuous
 62
     7
370
    25
100
AcDbLine
 10
959.6224485791
 20
505.5437500616
 30
0.0
 11
903.7155789529
 21
625.4364188788
 31
0.0
  0
LINE
  5
2AF
330
1F
100
AcDbEntity
  8
0
  6
Continuous
 62
     7
370
    25
100
AcDbLine
 10
958.8974023494
 20
505.2056554522
 30
0.0
 11
959.6224485791
 21
505.5437500616
 31
0.0
  0
LINE
  5
2B0
330
1F
100
AcDbEntity
  8
0
  6
Continuous
 62
     7
370
    25
100
AcDbLine
 10
958.8974023494
 20
505.2056554522
 30
0.0
 11
902.9905327233
 21
625.0983242694
 31
0.0
  0
LINE
  5
2B1
330
1F
100
AcDbEntity
  8
0
  6
Continuous
 62
     7
370
    25
100
AcDbLine
 10
870.5942285967
 20
446.7794728348
 30
0.0
 11
870.5942285967
 21
445.9794728348
 31
0.0
  0
LINE
  5
2B2
330
1F
100
AcDbEntity
  8
0
  6
Continuous
 62
     7
370
    25
100
AcDbLine
 10
868.5942285967
 20
445.9794728348
 30
0.0
 11
868.5942285967
 21
446.7794728348
 31
0.0
  0
LINE
  5
2B3
330
1F
100
AcDbEntity
  8
0
  6
Continuous
 62
     7
370
    25
100
AcDbLine
 10
868.5942285967
 20
446.7794728348
 30
0.0
 11
870.5942285967
 21
446.7794728348
 31
0.0
  0
LINE
  5
2B4
330
1F
100
AcDbEntity
  8
0
  6
Continuous
 62
     7
370
    25
100
AcDbLine
 10
870.5942285967
 20
445.9794728348
 30
0.0
 11
868.5942285967
 21
445.9794728348
 31
0.0
  0
LINE
  5
2B5
330
1F
100
AcDbEntity
  8
0
  6
Continuous
 62
     7
370
    25
100
AcDbLine
 10
916.9631844887
 20
632.9931011911
 30
0.0
 11
916.6250898793
 21
633.7181474207
 31
0.0
  0
LINE
  5
2B6
330
1F
100
AcDbEntity
  8
0
  6
Continuous
 62
     7
370
    25
100
AcDbLine
 10
918.4377054534
 20
634.5633839442
 30
0.0
 11
918.7758000628
 21
633.8383377146
 31
0.0
  0
LINE
  5
2B7
330
1F
100
AcDbEntity
  8
0
  6
Continuous
 62
     7
370
    25
100
AcDbLine
 10
918.7758000628
 20
633.8383377146
 30
0.0
 11
916.9631844887
 21
632.9931011911
 31
0.0
  0
LINE
  5
2B8
330
1F
100
AcDbEntity
  8
0
  6
Continuous
 62
     7
370
    25
100
AcDbLine
 10
916.6250898793
 20
633.7181474207
 30
0.0
 11
918.4377054534
 21
634.5633839442
 31
0.0
  0
ARC
  5
2B9
330
1F
100
AcDbEntity
  8
0
  6
Continuous
 62
     7
370
    25
100
AcDbCircle
 10
949.8343244791
 20
500.9794728348
 30
0.0
 40
10.80000000000009
100
AcDbArc
 50
335.0
 51
25.0
  0
LINE
  5
2BA
330
1F
100
AcDbEntity
  8
0
  6
Continuous
 62
     7
370
    25
100
AcDbLine
 10
959.6224485791
 20
496.415195608
 30
0.0
 11
958.8974023494
 21
496.7532902174
 31
0.0
  0
ARC
  5
2BB
330
1F
100
AcDbEntity
  8
0
  6
Continuous
 62
     7
370
    25
100
AcDbCircle
 10
949.8343244791
 20
500.9794728348
 30
0.0
 40
9.999999999999952
100
AcDbArc
 50
335.0
 51
25.0
  0
ARC
  5
2BC
330
1F
100
AcDbEntity
  8
0
  6
Continuous
 62
     7
370
    25
100
AcDbCircle
 10
929.2235259886
 20
456.7794728348
 30
0.0
 40
10.80000000000001
100
AcDbArc
 50
270.0
 51
335.0
  0
LINE
  5
2BD
330
1F
100
AcDbEntity
  8
0
  6
Continuous
 62
     7
370
    25
100
AcDbLine
 10
929.2235259886
 20
445.9794728348
 30
0.0
 11
929.2235259886
 21
446.7794728348
 31
0.0
  0
LINE
  5
2BE
330
1F
100
AcDbEntity
  8
0
  6
Continuous
 62
     7
370
    25
100
AcDbLine
 10
938.286603859
 20
452.5532902174
 30
0.0
 11
939.0116500886
 21
452.215195608
 31
0.0
  0
ARC
  5
2BF
330
1F
100
AcDbEntity
  8
0
  6
Continuous
 62
     7
370
    25
100
AcDbCircle
 10
929.2235259886
 20
456.7794728348
 30
0.0
 40
10.00000000000006
100
AcDbArc
 50
270.0
 51
335.0
  0
LINE
  5
2C0
330
1F
100
AcDbEntity
  8
0
  6
Continuous
 62
     7
370
    25
100
AcDbLine
 10
938.286603859
 20
452.5532902174
 30
0.0
 11
958.8974023494
 21
496.7532902174
 31
0.0
  0
LINE
  5
2C1
330
1F
100
AcDbEntity
  8
0
  6
Continuous
 62
     7
370
    25
100
AcDbLine
 10
939.0116500886
 20
452.215195608
 30
0.0
 11
959.6224485791
 21
496.415195608
 31
0.0
  0
ARC
  5
2C2
330
1F
100
AcDbEntity
  8
0
  6
Continuous
 62
     7
370
    25
100
AcDbCircle
 10
904.8484636867
 20
625.964691706
 30
0.0
 40
1.25000000000008
100
AcDbArc
 50
115.0
 51
205.0
  0
LINE
  5
2C3
330
1F
100
AcDbEntity
  8
0
  6
Continuous
 62
     7
370
    25
100
AcDbLine
 10
903.9820962501
 20
627.8226226694
 30
0.0
 11
904.3201908595
 21
627.0975764398
 31
0.0
  0
ARC
  5
2C4
330
1F
100
AcDbEntity
  8
0
  6
Continuous
 62
     7
370
    25
100
AcDbCircle
 10
904.8484636867
 20
625.964691706
 30
0.0
 40
2.050000000000057
100
AcDbArc
 50
115.0
 51
205.0
  0
LINE
  5
2C5
330
1F
100
AcDbEntity
  8
0
  6
Continuous
 62
     7
370
    25
100
AcDbLine
 10
904.3201908595
 20
627.0975764398
 30
0.0
 11
916.9631844887
 21
632.9931011911
 31
0.0
  0
LINE
  5
2C6
330
1F
100
AcDbEntity
  8
0
  6
Continuous
 62
     7
370
    25
100
AcDbLine
 10
903.9820962501
 20
627.8226226694
 30
0.0
 11
916.6250898793
 21
633.7181474207
 31
0.0
  0
LINE
  5
2C7
330
1F
100
AcDbEntity
  8
0
  6
Continuous
 62
     7
370
    25
100
AcDbLine
 10
870.5942285967
 20
446.7794728348
 30
0.0
 11
929.2235259886
 21
446.7794728348
 31
0.0
  0
LINE
  5
2C8
330
1F
100
AcDbEntity
  8
0
  6
Continuous
 62
     7
370
    25
100
AcDbLine
 10
870.5942285967
 20
445.9794728348
 30
0.0
 11
929.2235259886
 21
445.9794728348
 31
0.0
  0
LINE
  5
2C9
330
1F
100
AcDbEntity
  8
0
  6
Continuous
 62
     7
370
    25
100
AcDbLine
 10
918.4803368426
 20
634.6548072534
 30
0.0
 11
918.4377054534
 21
634.5633839442
 31
0.0
  0
ARC
  5
2CA
330
1F
100
AcDbEntity
  8
0
  6
Continuous
 62
     7
370
    25
100
AcDbCircle
 10
916.1810027794
 20
635.1661330836
 30
0.0
 40
1.500000000000092
100
AcDbArc
 50
295.0
 51
311.9080434759
  0
LINE
  5
2CB
330
1F
100
AcDbEntity
  8
0
  6
Continuous
 62
     7
370
    25
100
AcDbLine
 10
64.8843244808
 20
710.8794728348
 30
0.0
 11
64.8843244808
 21
709.3794728348
 31
0.0
  0
LINE
  5
2CC
330
1F
100
AcDbEntity
  8
0
  6
Continuous
 62
     7
370
    25
100
AcDbLine
 10
131.3843244808
 20
709.3794728348
 30
0.0
 11
64.8843244808
 21
709.3794728348
 31
0.0
  0
LINE
  5
2CD
330
1F
100
AcDbEntity
  8
0
  6
Continuous
 62
     7
370
    25
100
AcDbLine
 10
131.3843244808
 20
709.3794728348
 30
0.0
 11
131.3843244808
 21
710.8794728348
 31
0.0
  0
LINE
  5
2CE
330
1F
100
AcDbEntity
  8
0
  6
Continuous
 62
     7
370
    25
100
AcDbLine
 10
131.3863244808
 20
710.8794728348
 30
0.0
 11
131.3843244808
 21
710.8794728348
 31
0.0
  0
ARC
  5
2CF
330
1F
100
AcDbEntity
  8
0
  6
Continuous
 62
     7
370
    25
100
AcDbCircle
 10
131.3863244808
 20
708.8814728348
 30
0.0
 40
1.998000000000047
100
AcDbArc
 50
0.0
 51
90.0
  0
LINE
  5
2D0
330
1F
100
AcDbEntity
  8
0
  6
Continuous
 62
     7
370
    25
100
AcDbLine
 10
133.3843244808
 20
698.0774728348
 30
0.0
 11
133.3843244808
 21
708.8814728348
 31
0.0
  0
ARC
  5
2D1
330
1F
100
AcDbEntity
  8
0
  6
Continuous
 62
     7
370
    25
100
AcDbCircle
 10
131.3863244808
 20
698.0774728348
 30
0.0
 40
1.99799999999999
100
AcDbArc
 50
270.0
 51
0.0
  0
LINE
  5
2D2
330
1F
100
AcDbEntity
  8
0
  6
Continuous
 62
     7
370
    25
100
AcDbLine
 10
120.384324482
 20
696.0794728348
 30
0.0
 11
131.3863244808
 21
696.0794728348
 31
0.0
  0
LINE
  5
2D3
330
1F
100
AcDbEntity
  8
0
  6
Continuous
 62
     7
370
    25
100
AcDbLine
 10
120.384324482
 20
696.0794728348
 30
0.0
 11
120.384324482
 21
696.2794728348
 31
0.0
  0
LINE
  5
2D4
330
1F
100
AcDbEntity
  8
0
  6
Continuous
 62
     7
370
    25
100
AcDbLine
 10
75.8843244808
 20
696.2794728348
 30
0.0
 11
120.384324482
 21
696.2794728348
 31
0.0
  0
LINE
  5
2D5
330
1F
100
AcDbEntity
  8
0
  6
Continuous
 62
     7
370
    25
100
AcDbLine
 10
75.8843244808
 20
696.2794728348
 30
0.0
 11
75.8843244808
 21
696.0794728348
 31
0.0
  0
LINE
  5
2D6
330
1F
100
AcDbEntity
  8
0
  6
Continuous
 62
     7
370
    25
100
AcDbLine
 10
64.8823244808
 20
696.0794728348
 30
0.0
 11
75.8843244808
 21
696.0794728348
 31
0.0
  0
ARC
  5
2D7
330
1F
100
AcDbEntity
  8
0
  6
Continuous
 62
     7
370
    25
100
AcDbCircle
 10
64.8823244808
 20
708.8814728348
 30
0.0
 40
1.998000000000047
100
AcDbArc
 50
90.0
 51
180.0
  0
LINE
  5
2D8
330
1F
100
AcDbEntity
  8
0
  6
Continuous
 62
     7
370
    25
100
AcDbLine
 10
62.8843244808
 20
708.8814728348
 30
0.0
 11
62.8843244808
 21
698.0774728348
 31
0.0
  0
ARC
  5
2D9
330
1F
100
AcDbEntity
  8
0
  6
Continuous
 62
     7
370
    25
100
AcDbCircle
 10
64.8823244808
 20
698.0774728348
 30
0.0
 40
1.998000000000005
100
AcDbArc
 50
180.0
 51
270.0
  0
LINE
  5
2DA
330
1F
100
AcDbEntity
  8
0
  6
Continuous
 62
     7
370
    25
100
AcDbLine
 10
64.8843244808
 20
710.8794728348
 30
0.0
 11
64.8823244808
 21
710.8794728348
 31
0.0
  0
LINE
  5
2DB
330
1F
100
AcDbEntity
  8
0
  6
Continuous
 62
     7
370
    25
100
AcDbLine
 10
64.8843244808
 20
710.8794728348
 30
0.0
 11
64.8843244808
 21
711.6794728348
 31
0.0
  0
LINE
  5
2DC
330
1F
100
AcDbEntity
  8
0
  6
Continuous
 62
     7
370
    25
100
AcDbLine
 10
131.3843244808
 20
711.6794728348
 30
0.0
 11
64.8843244808
 21
711.6794728348
 31
0.0
  0
LINE
  5
2DD
330
1F
100
AcDbEntity
  8
0
  6
Continuous
 62
     7
370
    25
100
AcDbLine
 10
131.3843244808
 20
711.6794728348
 30
0.0
 11
131.3843244808
 21
710.8794728348
 31
0.0
  0
LINE
  5
2DE
330
1F
100
AcDbEntity
  8
0
  6
Continuous
 62
     7
370
    25
100
AcDbLine
 10
120.384324482
 20
696.0794728348
 30
0.0
 11
120.384324482
 21
693.9794728348
 31
0.0
  0
LINE
  5
2DF
330
1F
100
AcDbEntity
  8
0
  6
Continuous
 62
     7
370
    25
100
AcDbLine
 10
75.8843244808
 20
693.9794728348
 30
0.0
 11
120.384324482
 21
693.9794728348
 31
0.0
  0
LINE
  5
2E0
330
1F
100
AcDbEntity
  8
0
  6
Continuous
 62
     7
370
    25
100
AcDbLine
 10
75.8843244808
 20
693.9794728348
 30
0.0
 11
75.8843244808
 21
696.0794728348
 31
0.0
  0
LINE
  5
2E1
330
1F
100
AcDbEntity
  8
0
  6
Continuous
 62
     7
370
    25
100
AcDbLine
 10
45.5695099708
 20
634.8794728348
 30
0.0
 11
44.7695099708
 21
634.8794728348
 31
0.0
  0
LINE
  5
2E2
330
1F
100
AcDbEntity
  8
0
  6
Continuous
 62
     7
370
    25
100
AcDbLine
 10
45.5695099708
 20
562.8794728348
 30
0.0
 11
44.7695099708
 21
562.8794728348
 31
0.0
  0
LINE
  5
2E3
330
1F
100
AcDbEntity
  8
0
  6
Continuous
 62
     7
370
    25
100
AcDbLine
 10
44.7695099708
 20
562.8794728348
 30
0.0
 11
44.7695099708
 21
634.8794728348
 31
0.0
  0
LINE
  5
2E4
330
1F
100
AcDbEntity
  8
0
  6
Continuous
 62
     7
370
    25
100
AcDbLine
 10
45.5695099708
 20
562.8794728348
 30
0.0
 11
45.5695099708
 21
634.8794728348
 31
0.0
  0
ARC
  5
2E5
330
1F
100
AcDbEntity
  8
0
  6
Continuous
 62
     7
370
    25
100
AcDbCircle
 10
46.8195099708
 20
634.8794728348
 30
0.0
 40
2.050000000000054
100
AcDbArc
 50
90.0
 51
180.0
  0
LINE
  5
2E6
330
1F
100
AcDbEntity
  8
0
  6
Continuous
 62
     7
370
    25
100
AcDbLine
 10
46.8195099708
 20
636.1294728348
 30
0.0
 11
46.8195099708
 21
636.9294728348
 31
0.0
  0
ARC
  5
2E7
330
1F
100
AcDbEntity
  8
0
  6
Continuous
 62
     7
370
    25
100
AcDbCircle
 10
46.8195099708
 20
634.8794728348
 30
0.0
 40
1.250000000000036
100
AcDbArc
 50
90.0
 51
180.0
  0
LINE
  5
2E8
330
1F
100
AcDbEntity
  8
0
  6
Continuous
 62
     7
370
    25
100
AcDbLine
 10
60.6311802514
 20
636.1294728348
 30
0.0
 11
46.8195099708
 21
636.1294728348
 31
0.0
  0
LINE
  5
2E9
330
1F
100
AcDbEntity
  8
0
  6
Continuous
 62
     7
370
    25
100
AcDbLine
 10
60.6311802514
 20
636.9294728348
 30
0.0
 11
46.8195099708
 21
636.9294728348
 31
0.0
  0
LINE
  5
2EA
330
1F
100
AcDbEntity
  8
0
  6
Continuous
 62
     7
370
    25
100
AcDbLine
 10
46.8195099708
 20
560.8294728348
 30
0.0
 11
60.6311802514
 21
560.8294728348
 31
0.0
  0
LINE
  5
2EB
330
1F
100
AcDbEntity
  8
0
  6
Continuous
 62
     7
370
    25
100
AcDbLine
 10
46.8195099708
 20
561.6294728348
 30
0.0
 11
46.8195099708
 21
560.8294728348
 31
0.0
  0
LINE
  5
2EC
330
1F
100
AcDbEntity
  8
0
  6
Continuous
 62
     7
370
    25
100
AcDbLine
 10
46.8195099708
 20
561.6294728348
 30
0.0
 11
60.6311802514
 21
561.6294728348
 31
0.0
  0
ARC
  5
2ED
330
1F
100
AcDbEntity
  8
0
  6
Continuous
 62
     7
370
    25
100
AcDbCircle
 10
46.8195099708
 20
562.8794728348
 30
0.0
 40
2.049999999999997
100
AcDbArc
 50
180.0
 51
270.0
  0
ARC
  5
2EE
330
1F
100
AcDbEntity
  8
0
  6
Continuous
 62
     7
370
    25
100
AcDbCircle
 10
46.8195099708
 20
562.8794728348
 30
0.0
 40
1.250000000000028
100
AcDbArc
 50
180.0
 51
270.0
  0
LINE
  5
2EF
330
1F
100
AcDbEntity
  8
0
  6
Continuous
 62
     7
370
    25
100
AcDbLine
 10
94.5003648975
 20
431.6294728348
 30
0.0
 11
94.5003648975
 21
429.7794728348
 31
0.0
  0
LINE
  5
2F0
330
1F
100
AcDbEntity
  8
0
  6
Continuous
 62
     7
370
    25
100
AcDbLine
 10
109.3859255592
 20
429.7794728348
 30
0.0
 11
109.3859255592
 21
431.2583236512
 31
0.0
  0
LINE
  5
2F1
330
1F
100
AcDbEntity
  8
0
  6
Continuous
 62
     7
370
    25
100
AcDbLine
 10
95.8896401654
 20
433.6794728348
 30
0.0
 11
98.7628908883
 21
433.6794728348
 31
0.0
  0
LINE
  5
2F2
330
1F
100
AcDbEntity
  8
0
  6
Continuous
 62
     7
370
    25
100
AcDbLine
 10
94.5003648975
 20
429.7794728348
 30
0.0
 11
109.3859255592
 21
429.7794728348
 31
0.0
  0
LINE
  5
2F3
330
1F
100
AcDbEntity
  8
0
  6
Continuous
 62
     7
370
    25
100
AcDbLine
 10
115.5624744688
 20
446.7794728348
 30
0.0
 11
115.5624744688
 21
443.5794728348
 31
0.0
  0
LINE
  5
2F4
330
1F
100
AcDbEntity
  8
0
  6
Continuous
 62
     7
370
    25
100
AcDbLine
 10
109.2061125112
 20
443.5794728348
 30
0.0
 11
115.5624744688
 21
443.5794728348
 31
0.0
  0
LINE
  5
2F5
330
1F
100
AcDbEntity
  8
0
  6
Continuous
 62
     7
370
    25
100
AcDbLine
 10
114.3682848638
 20
436.0794728348
 30
0.0
 11
115.9695099708
 21
436.0794728348
 31
0.0
  0
LINE
  5
2F6
330
1F
100
AcDbEntity
  8
0
  6
Continuous
 62
     7
370
    25
100
AcDbLine
 10
86.2695099708
 20
436.0794728348
 30
0.0
 11
93.9195099708
 21
436.0794728348
 31
0.0
  0
LINE
  5
2F7
330
1F
100
AcDbEntity
  8
0
  6
Continuous
 62
     7
370
    25
100
AcDbLine
 10
109.9074178965
 20
415.5794728348
 30
0.0
 11
91.2695099708
 21
415.5794728348
 31
0.0
  0
LINE
  5
2F8
330
1F
100
AcDbEntity
  8
0
  6
Continuous
 62
     7
370
    25
100
AcDbLine
 10
110.9695099708
 20
415.5794728348
 30
0.0
 11
109.9074178965
 21
415.5794728348
 31
0.0
  0
LINE
  5
2F9
330
1F
100
AcDbEntity
  8
0
  6
Continuous
 62
     7
370
    25
100
AcDbLine
 10
113.6099374794
 20
441.5794728348
 30
0.0
 11
115.1195099708
 21
441.5794728348
 31
0.0
  0
LINE
  5
2FA
330
1F
100
AcDbEntity
  8
0
  6
Continuous
 62
     7
370
    25
100
AcDbLine
 10
87.1195099708
 20
441.5794728348
 30
0.0
 11
98.3515669703
 21
441.5794728348
 31
0.0
  0
LINE
  5
2FB
330
1F
100
AcDbEntity
  8
0
  6
Continuous
 62
     7
370
    25
100
AcDbLine
 10
109.8874529714
 20
441.5794728348
 30
0.0
 11
113.6099374794
 21
441.5794728348
 31
0.0
  0
LINE
  5
2FC
330
1F
100
AcDbEntity
  8
0
  6
Continuous
 62
     7
370
    25
100
AcDbLine
 10
100.9943972683
 20
443.8794728348
 30
0.0
 11
100.9943972683
 21
443.6294728348
 31
0.0
  0
LINE
  5
2FD
330
1F
100
AcDbEntity
  8
0
  6
Continuous
 62
     7
370
    25
100
AcDbLine
 10
87.6938303574
 20
443.5794728348
 30
0.0
 11
87.6938303574
 21
446.7794728348
 31
0.0
  0
LINE
  5
2FE
330
1F
100
AcDbEntity
  8
0
  6
Continuous
 62
     7
370
    25
100
AcDbLine
 10
87.6938303574
 20
443.5794728348
 30
0.0
 11
99.0329074305
 21
443.5794728348
 31
0.0
  0
LINE
  5
2FF
330
1F
100
AcDbEntity
  8
0
  6
Continuous
 62
     7
370
    25
100
AcDbLine
 10
92.636392825
 20
429.7794728348
 30
0.0
 11
92.636392825
 21
433.6794728348
 31
0.0
  0
LINE
  5
300
330
1F
100
AcDbEntity
  8
0
  6
Continuous
 62
     7
370
    25
100
AcDbLine
 10
92.636392825
 20
433.6794728348
 30
0.0
 11
93.9195099708
 21
433.6794728348
 31
0.0
  0
LINE
  5
301
330
1F
100
AcDbEntity
  8
0
  6
Continuous
 62
     7
370
    25
100
AcDbLine
 10
92.636392825
 20
429.7794728348
 30
0.0
 11
94.5003648975
 21
429.7794728348
 31
0.0
  0
LINE
  5
302
330
1F
100
AcDbEntity
  8
0
  6
Continuous
 62
     7
370
    25
100
AcDbLine
 10
111.1351790407
 20
433.6794728348
 30
0.0
 11
111.1351790407
 21
429.7794728348
 31
0.0
  0
LINE
  5
303
330
1F
100
AcDbEntity
  8
0
  6
Continuous
 62
     7
370
    25
100
AcDbLine
 10
109.3859255592
 20
433.6794728348
 30
0.0
 11
111.1351790407
 21
433.6794728348
 31
0.0
  0
LINE
  5
304
330
1F
100
AcDbEntity
  8
0
  6
Continuous
 62
     7
370
    25
100
AcDbLine
 10
109.3859255592
 20
429.7794728348
 30
0.0
 11
111.1351790407
 21
429.7794728348
 31
0.0
  0
LINE
  5
305
330
1F
100
AcDbEntity
  8
0
  6
Continuous
 62
     7
370
    25
100
AcDbLine
 10
84.4846958276
 20
433.6794728348
 30
0.0
 11
84.4846958276
 21
429.7794728348
 31
0.0
  0
LINE
  5
306
330
1F
100
AcDbEntity
  8
0
  6
Continuous
 62
     7
370
    25
100
AcDbLine
 10
84.4846958276
 20
433.6794728348
 30
0.0
 11
92.636392825
 21
433.6794728348
 31
0.0
  0
LINE
  5
307
330
1F
100
AcDbEntity
  8
0
  6
Continuous
 62
     7
370
    25
100
AcDbLine
 10
84.4846958276
 20
429.7794728348
 30
0.0
 11
92.636392825
 21
429.7794728348
 31
0.0
  0
LINE
  5
308
330
1F
100
AcDbEntity
  8
0
  6
Continuous
 62
     7
370
    25
100
AcDbLine
 10
117.869042705
 20
429.7794728348
 30
0.0
 11
117.869042705
 21
433.6794728348
 31
0.0
  0
LINE
  5
309
330
1F
100
AcDbEntity
  8
0
  6
Continuous
 62
     7
370
    25
100
AcDbLine
 10
111.1351790407
 20
433.6794728348
 30
0.0
 11
112.3493797763
 21
433.6794728348
 31
0.0
  0
LINE
  5
30A
330
1F
100
AcDbEntity
  8
0
  6
Continuous
 62
     7
370
    25
100
AcDbLine
 10
114.3195099708
 20
433.6794728348
 30
0.0
 11
117.869042705
 21
433.6794728348
 31
0.0
  0
LINE
  5
30B
330
1F
100
AcDbEntity
  8
0
  6
Continuous
 62
     7
370
    25
100
AcDbLine
 10
111.1351790407
 20
429.7794728348
 30
0.0
 11
117.869042705
 21
429.7794728348
 31
0.0
  0
LINE
  5
30C
330
1F
100
AcDbEntity
  8
0
  6
Continuous
 62
     7
370
    25
100
AcDbLine
 10
86.5514327703
 20
446.7794728348
 30
0.0
 11
86.5514327703
 21
443.5794728348
 31
0.0
  0
LINE
  5
30D
330
1F
100
AcDbEntity
  8
0
  6
Continuous
 62
     7
370
    25
100
AcDbLine
 10
86.5514327703
 20
443.5794728348
 30
0.0
 11
87.6938303574
 21
443.5794728348
 31
0.0
  0
LINE
  5
30E
330
1F
100
AcDbEntity
  8
0
  6
Continuous
 62
     7
370
    25
100
AcDbLine
 10
116.506173628
 20
443.5794728348
 30
0.0
 11
116.506173628
 21
446.7794728348
 31
0.0
  0
LINE
  5
30F
330
1F
100
AcDbEntity
  8
0
  6
Continuous
 62
     7
370
    25
100
AcDbLine
 10
115.5624744688
 20
443.5794728348
 30
0.0
 11
116.506173628
 21
443.5794728348
 31
0.0
  0
LINE
  5
310
330
1F
100
AcDbEntity
  8
0
  6
Continuous
 62
     7
370
    25
100
AcDbLine
 10
85.7328463137
 20
443.5794728348
 30
0.0
 11
85.7328463137
 21
446.7794728348
 31
0.0
  0
LINE
  5
311
330
1F
100
AcDbEntity
  8
0
  6
Continuous
 62
     7
370
    25
100
AcDbLine
 10
85.7328463137
 20
443.5794728348
 30
0.0
 11
86.5514327703
 21
443.5794728348
 31
0.0
  0
LINE
  5
312
330
1F
100
AcDbEntity
  8
0
  6
Continuous
 62
     7
370
    25
100
AcDbLine
 10
84.3699772367
 20
433.6794728348
 30
0.0
 11
84.4846958276
 21
433.6794728348
 31
0.0
  0
LINE
  5
313
330
1F
100
AcDbEntity
  8
0
  6
Continuous
 62
     7
370
    25
100
AcDbLine
 10
84.3699772367
 20
429.7794728348
 30
0.0
 11
84.4846958276
 21
429.7794728348
 31
0.0
  0
LINE
  5
314
330
1F
100
AcDbEntity
  8
0
  6
Continuous
 62
     7
370
    25
100
AcDbLine
 10
919.11025564
 20
634.9485432127
 30
0.0
 11
902.9577547556
 21
627.4165083519
 31
0.0
  0
SPLINE
  5
315
330
1F
100
AcDbEntity
  8
0
  6
Continuous
 62
     7
370
    25
100
AcDbSpline
210
0.0
220
0.0
230
1.0
 70
     8
 71
     3
 72
    11
 73
     7
 74
     0
 42
0.00000001
 43
0.00000001
 40
0.0
 40
0.0
 40
0.0
 40
0.0
 40
0.288975927564494
 40
0.5779517763250519
 40
0.8674414070450526
 40
1.0
 40
1.0
 40
1.0
 40
1.0
 10
902.9577547556266
 20
627.4165083519274
 30
0.0
 10
902.6542268460713
 20
627.3262329676123
 30
0.0
 10
902.0471711097329
 20
627.1456822236001
 30
0.0
 10
900.8986531323009
 20
627.3850685882711
 30
0.0
 10
899.8640953346005
 20
627.7768488670941
 30
0.0
 10
899.2371469121083
 20
628.0436948565447
 30
0.0
 10
899.0402324457538
 20
628.1275069114545
 30
0.0
  0
LINE
  5
316
330
1F
100
AcDbEntity
  8
0
  6
Continuous
 62
     7
370
    25
100
AcDbLine
 10
899.0402324458
 20
628.1275069115
 30
0.0
 11
937.3790187252
 21
646.0051765579
 31
0.0
  0
SPLINE
  5
317
330
1F
100
AcDbEntity
  8
0
  6
Continuous
 62
     7
370
    25
100
AcDbSpline
210
0.0
220
0.0
230
1.0
 70
     8
 71
     3
 72
    11
 73
     7
 74
     0
 42
0.00000001
 43
0.00000001
 40
0.0
 40
0.0
 40
0.0
 40
0.0
 40
0.288807707719431
 40
0.57761533621973
 40
0.8669345414323527
 40
1.0
 40
1.0
 40
1.0
 40
1.0
 10
899.0402324457538
 20
628.1275069114545
 30
0.0
 10
899.4879304705315
 20
627.9912981565983
 30
0.0
 10
900.3833263972851
 20
627.7188806842476
 30
0.0
 10
901.5304879863456
 20
627.2188713571329
 30
0.0
 10
902.2053755350775
 20
626.6826206267041
 30
0.0
 10
902.4267296195269
 20
626.283572490652
 30
0.0
 10
902.496463644644
 20
626.1578588278047
 30
0.0
  0
LINE
  5
318
330
1F
100
AcDbEntity
  8
0
  6
Continuous
 62
     7
370
    25
100
AcDbLine
 10
902.4964636446
 20
626.1578588278
 30
0.0
 11
902.9905327233
 21
625.0983242694
 31
0.0
  0
LINE
  5
319
330
1F
100
AcDbEntity
  8
0
  6
Continuous
 62
     7
370
    25
100
AcDbLine
 10
958.8974023494
 20
505.2056554522
 30
0.0
 11
956.8128944392
 21
504.2336334502
 31
0.0
  0
LINE
  5
31A
330
1F
100
AcDbEntity
  8
0
  6
Continuous
 62
     7
370
    25
100
AcDbLine
 10
956.8128944392
 20
504.2336334502
 30
0.0
 11
899.0402324458
 21
628.1275069115
 31
0.0
  0
LINE
  5
31B
330
1F
100
AcDbEntity
  8
0
  6
Continuous
 62
     7
370
    25
100
AcDbLine
 10
956.8128944392
 20
497.7253122194
 30
0.0
 11
958.8974023494
 21
496.7532902174
 31
0.0
  0
ARC
  5
31C
330
1F
100
AcDbEntity
  8
0
  6
Continuous
 62
     7
370
    25
100
AcDbCircle
 10
949.8343244791
 20
500.9794728348
 30
0.0
 40
7.69999999999975
100
AcDbArc
 50
335.0
 51
25.0
  0
CIRCLE
  5
31D
330
1F
100
AcDbEntity
  8
0
  6
Continuous
 62
     7
370
    25
100
AcDbCircle
 10
138.1784026614
 20
673.9794728348
 30
0.0
 40
6.347663105371566
  0
CIRCLE
  5
31E
330
1F
100
AcDbEntity
  8
0
  6
Continuous
 62
     7
370
    25
100
AcDbCircle
 10
138.1784026614
 20
673.9794728348
 30
0.0
 40
4.700000000000045
  0
LINE
  5
31F
330
1F
100
AcDbEntity
  8
0
  6
Continuous
 62
     7
370
    25
100
AcDbLine
 10
938.286603859
 20
452.5532902174
 30
0.0
 11
936.2020959488
 21
453.5253122194
 31
0.0
  0
LINE
  5
320
330
1F
100
AcDbEntity
  8
0
  6
Continuous
 62
     7
370
    25
100
AcDbLine
 10
936.2020959488
 20
453.5253122194
 30
0.0
 11
956.8128944392
 21
497.7253122194
 31
0.0
  0
ARC
  5
321
330
1F
100
AcDbEntity
  8
0
  6
Continuous
 62
     7
370
    25
100
AcDbCircle
 10
934.1248581098
 20
652.9837465181
 30
0.0
 40
7.700000000000107
100
AcDbArc
 50
295.0
 51
335.0
  0
LINE
  5
322
330
1F
100
AcDbEntity
  8
0
  6
Continuous
 62
     7
370
    25
100
AcDbLine
 10
943.1879359802
 20
648.7575639007
 30
0.0
 11
941.10342807
 21
649.7295859027
 31
0.0
  0
ARC
  5
323
330
1F
100
AcDbEntity
  8
0
  6
Continuous
 62
     7
370
    25
100
AcDbCircle
 10
934.1248581098
 20
652.9837465181
 30
0.0
 40
10.0000000000001
100
AcDbArc
 50
298.6103567731
 51
335.0
  0
CIRCLE
  5
324
330
1F
100
AcDbEntity
  8
0
  6
Continuous
 62
     7
370
    25
100
AcDbCircle
 10
528.1784026614
 20
673.9794728348
 30
0.0
 40
6.347663105371566
  0
CIRCLE
  5
325
330
1F
100
AcDbEntity
  8
0
  6
Continuous
 62
     7
370
    25
100
AcDbCircle
 10
528.1784026614
 20
673.9794728348
 30
0.0
 40
4.700000000000045
  0
SPLINE
  5
326
330
1F
100
AcDbEntity
  8
0
  6
Continuous
 62
     7
370
    25
100
AcDbSpline
210
0.0
220
0.0
230
1.0
 70
     8
 71
     3
 72
    12
 73
     8
 74
     0
 42
0.00000001
 43
0.00000001
 40
0.0
 40
0.0
 40
0.0
 40
0.0
 40
0.2096821001528805
 40
0.4420453733185747
 40
0.6744332966681248
 40
0.9068208701180618
 40
0.9999999999999999
 40
0.9999999999999999
 40
0.9999999999999999
 40
0.9999999999999999
 10
62.93118025136047
 20
691.679472834778
 30
0.0
 10
62.82689504343297
 20
691.9318037927533
 30
0.0
 10
62.60704416614627
 20
692.4637601802406
 30
0.0
 10
62.27107603626336
 20
693.1851416100553
 30
0.0
 10
61.92417076784651
 20
693.7285005440417
 30
0.0
 10
61.6457941056135
 20
693.9571223841851
 30
0.0
 10
61.48443364439199
 20
693.9744994228095
 30
0.0
 10
61.43825131917235
 20
693.979472834778
 30
0.0
  0
SPLINE
  5
327
330
1F
100
AcDbEntity
  8
0
  6
Continuous
 62
     7
370
    25
100
AcDbSpline
210
0.0
220
0.0
230
1.0
 70
     8
 71
     3
 72
    11
 73
     7
 74
     0
 42
0.00000001
 43
0.00000001
 40
0.0
 40
0.0
 40
0.0
 40
0.0
 40
0.2543211584720613
 40
0.5088664984541705
 40
0.763413000719657
 40
1.0
 40
1.0
 40
1.0
 40
1.0
 10
62.93118025136047
 20
691.679472834778
 30
0.0
 10
62.804599143575
 20
691.8794480249173
 30
0.0
 10
62.55132534804741
 20
692.2795746812884
 30
0.0
 10
62.17138067856215
 20
692.7811984353839
 30
0.0
 10
61.80015554689094
 20
693.1172636822429
 30
0.0
 10
61.55590890222201
 20
693.1592482063536
 30
0.0
 10
61.43825131917235
 20
693.179472834778
 30
0.0
  0
LINE
  5
328
330
1F
100
AcDbEntity
  8
0
  6
Continuous
 62
     7
370
    25
100
AcDbLine
 10
61.4382513192
 20
693.9794728348
 30
0.0
 11
61.4382513192
 21
693.1794728348
 31
0.0
  0
LINE
  5
329
330
1F
100
AcDbEntity
  8
0
  6
Continuous
 62
     7
370
    25
100
AcDbLine
 10
61.4382513192
 20
693.9794728348
 30
0.0
 11
64.8843244808
 21
693.9794728348
 31
0.0
  0
LINE
  5
32A
330
1F
100
AcDbEntity
  8
0
  6
Continuous
 62
     7
370
    25
100
AcDbLine
 10
75.6343244808
 20
693.9794728348
 30
0.0
 11
75.8843244808
 21
693.9794728348
 31
0.0
  0
LINE
  5
32B
330
1F
100
AcDbEntity
  8
0
  6
Continuous
 62
     7
370
    25
100
AcDbLine
 10
120.3843244808
 20
693.9794728348
 30
0.0
 11
137.8843244808
 21
693.9794728348
 31
0.0
  0
LINE
  5
32C
330
1F
100
AcDbEntity
  8
0
  6
Continuous
 62
     7
370
    25
100
AcDbLine
 10
948.5784026614
 20
693.9794728348
 30
0.0
 11
948.5784026614
 21
691.6794728348
 31
0.0
  0
LINE
  5
32D
330
1F
100
AcDbEntity
  8
0
  6
Continuous
 62
     7
370
    25
100
AcDbLine
 10
948.5784026614
 20
691.6794728348
 30
0.0
 11
62.9311802514
 21
691.6794728348
 31
0.0
  0
SPLINE
  5
32E
330
1F
100
AcDbEntity
  8
0
  6
Continuous
 62
     7
370
    25
100
AcDbSpline
210
0.0
220
0.0
230
1.0
 70
     8
 71
     3
 72
    12
 73
     8
 74
     0
 42
0.00000001
 43
0.00000001
 40
0.0
 40
0.0
 40
0.0
 40
0.0
 40
0.2096821001528533
 40
0.4420453733185997
 40
0.6744332966681255
 40
0.9068208701180613
 40
1.0
 40
1.0
 40
1.0
 40
1.0
 10
62.93118025136041
 20
449.0794728347776
 30
0.0
 10
62.67884929338513
 20
448.97518762685
 30
0.0
 10
62.14689290589792
 20
448.7553367495632
 30
0.0
 10
61.42551147608305
 20
448.4193686196804
 30
0.0
 10
60.88215254209689
 20
448.0724633512636
 30
0.0
 10
60.65353070195317
 20
447.7940866890307
 30
0.0
 10
60.63615366332908
 20
447.6327262278091
 30
0.0
 10
60.6311802513605
 20
447.5865439025894
 30
0.0
  0
SPLINE
  5
32F
330
1F
100
AcDbEntity
  8
0
  6
Continuous
 62
     7
370
    25
100
AcDbSpline
210
0.0
220
0.0
230
1.0
 70
     8
 71
     3
 72
    11
 73
     7
 74
     0
 42
0.00000001
 43
0.00000001
 40
0.0
 40
0.0
 40
0.0
 40
0.0
 40
0.254321158472123
 40
0.508866498454226
 40
0.763413000719725
 40
1.0
 40
1.0
 40
1.0
 40
1.0
 10
62.93118025136047
 20
449.0794728347776
 30
0.0
 10
62.73120506122115
 20
448.9528917269922
 30
0.0
 10
62.33107840484997
 20
448.6996179314644
 30
0.0
 10
61.82945465075462
 20
448.3196732619791
 30
0.0
 10
61.4933894038957
 20
447.9484481303082
 30
0.0
 10
61.45140487978507
 20
447.704201485639
 30
0.0
 10
61.43118025136052
 20
447.5865439025894
 30
0.0
  0
LINE
  5
330
330
1F
100
AcDbEntity
  8
0
  6
Continuous
 62
     7
370
    25
100
AcDbLine
 10
60.6311802514
 20
447.5865439026
 30
0.0
 11
61.4311802514
 21
447.5865439026
 31
0.0
  0
LINE
  5
331
330
1F
100
AcDbEntity
  8
0
  6
Continuous
 62
     7
370
    25
100
AcDbLine
 10
955.5569726215
 20
680.7253122194
 30
0.0
 11
957.6414805317
 21
679.7532902174
 31
0.0
  0
LINE
  5
332
330
1F
100
AcDbEntity
  8
0
  6
Continuous
 62
     7
370
    25
100
AcDbLine
 10
943.1879359802
 20
648.7575639007
 30
0.0
 11
957.6414805317
 21
679.7532902174
 31
0.0
  0
LINE
  5
333
330
1F
100
AcDbEntity
  8
0
  6
Continuous
 62
     7
370
    25
100
AcDbLine
 10
941.10342807
 20
649.7295859027
 30
0.0
 11
955.5569726215
 21
680.7253122194
 31
0.0
  0
LINE
  5
334
330
1F
100
AcDbEntity
  8
0
  6
Continuous
 62
     7
370
    25
100
AcDbLine
 10
60.6311802514
 20
693.172401767
 30
0.0
 11
60.6311802514
 21
447.5865439026
 31
0.0
  0
SPLINE
  5
335
330
1F
100
AcDbEntity
  8
0
  6
Continuous
 62
     7
370
    25
100
AcDbSpline
210
0.0
220
0.0
230
1.0
 70
     8
 71
     3
 72
    12
 73
     8
 74
     0
 42
0.00000001
 43
0.00000001
 40
0.0
 40
0.0
 40
0.0
 40
0.0
 40
0.2096821001528779
 40
0.4420453733185962
 40
0.6744332966681126
 40
0.9068208701180277
 40
1.0
 40
1.0
 40
1.0
 40
1.0
 10
60.63118025136044
 20
693.1724017669661
 30
0.0
 10
60.65552022152904
 20
693.0681165590387
 30
0.0
 10
60.70683300021595
 20
692.8482656817519
 30
0.0
 10
61.12776358714456
 20
692.512297551869
 30
0.0
 10
61.77955306504018
 20
692.1653922834522
 30
0.0
 10
62.42899410414243
 20
691.8870156212196
 30
0.0
 10
62.81943402124895
 20
691.7256551599977
 30
0.0
 10
62.93118025136047
 20
691.679472834778
 30
0.0
  0
LINE
  5
336
330
1F
100
AcDbEntity
  8
0
  6
Continuous
 62
     7
370
    25
100
AcDbLine
 10
62.9311802514
 20
691.6794728348
 30
0.0
 11
62.9311802514
 21
449.0794728348
 31
0.0
  0
ARC
  5
337
330
1F
100
AcDbEntity
  8
0
  6
Continuous
 62
     7
370
    25
100
AcDbCircle
 10
948.5784026614
 20
683.9794728348
 30
0.0
 40
7.69999999999975
100
AcDbArc
 50
335.0
 51
90.0
  0
ARC
  5
338
330
1F
100
AcDbEntity
  8
0
  6
Continuous
 62
     7
370
    25
100
AcDbCircle
 10
948.5784026614
 20
683.9794728348
 30
0.0
 40
9.999999999999721
100
AcDbArc
 50
335.0
 51
90.0
  0
CIRCLE
  5
339
330
1F
100
AcDbEntity
  8
0
  6
Continuous
 62
     7
370
    25
100
AcDbCircle
 10
908.1784026614
 20
673.9794728348
 30
0.0
 40
6.347663105371566
  0
CIRCLE
  5
33A
330
1F
100
AcDbEntity
  8
0
  6
Continuous
 62
     7
370
    25
100
AcDbCircle
 10
908.1784026614
 20
673.9794728348
 30
0.0
 40
4.700000000000045
  0
LINE
  5
33B
330
1F
100
AcDbEntity
  8
0
  6
Continuous
 62
     7
370
    25
100
AcDbLine
 10
929.2235259886
 20
449.0794728348
 30
0.0
 11
929.2235259886
 21
446.7794728348
 31
0.0
  0
LINE
  5
33C
330
1F
100
AcDbEntity
  8
0
  6
Continuous
 62
     7
370
    25
100
AcDbLine
 10
868.5942285967
 20
446.7794728348
 30
0.0
 11
61.4382513192
 21
446.7794728348
 31
0.0
  0
SPLINE
  5
33D
330
1F
100
AcDbEntity
  8
0
  6
Continuous
 62
     7
370
    25
100
AcDbSpline
210
0.0
220
0.0
230
1.0
 70
     8
 71
     3
 72
    12
 73
     8
 74
     0
 42
0.00000001
 43
0.00000001
 40
0.0
 40
0.0
 40
0.0
 40
0.0
 40
0.2096821001528686
 40
0.4420453733186102
 40
0.6744332966681336
 40
0.9068208701180586
 40
1.0
 40
1.0
 40
1.0
 40
1.0
 10
61.43825131917235
 20
446.7794728347776
 30
0.0
 10
61.5425365270999
 20
446.8038128049462
 30
0.0
 10
61.76238740438661
 20
446.855125583633
 30
0.0
 10
62.09835553426957
 20
447.2760561705617
 30
0.0
 10
62.44526080268631
 20
447.9278456484573
 30
0.0
 10
62.72363746491894
 20
448.5772866875598
 30
0.0
 10
62.88499792614072
 20
448.9677266046661
 30
0.0
 10
62.93118025136047
 20
449.0794728347776
 30
0.0
  0
LINE
  5
33E
330
1F
100
AcDbEntity
  8
0
  6
Continuous
 62
     7
370
    25
100
AcDbLine
 10
62.9311802514
 20
449.0794728348
 30
0.0
 11
929.2235259886
 21
449.0794728348
 31
0.0
  0
ARC
  5
33F
330
1F
100
AcDbEntity
  8
0
  6
Continuous
 62
     7
370
    25
100
AcDbCircle
 10
929.2235259886
 20
456.7794728348
 30
0.0
 40
7.699999999999956
100
AcDbArc
 50
270.0
 51
335.0
  0
LINE
  5
340
330
1F
100
AcDbEntity
  8
0
  6
Continuous
 62
     7
370
    25
100
AcDbLine
 10
60.6311802514
 20
693.172401767
 30
0.0
 11
61.4311802514
 21
693.172401767
 31
0.0
  0
SPLINE
  5
341
330
1F
100
AcDbEntity
  8
0
  6
Continuous
 62
     7
370
    25
100
AcDbSpline
210
0.0
220
0.0
230
1.0
 70
     8
 71
     3
 72
    11
 73
     7
 74
     0
 42
0.00000001
 43
0.00000001
 40
0.0
 40
0.0
 40
0.0
 40
0.0
 40
0.2543211584721001
 40
0.5088664984542048
 40
0.7634130007196964
 40
1.0
 40
1.0
 40
1.0
 40
1.0
 10
61.43118025136046
 20
693.1724017669661
 30
0.0
 10
61.4545343133795
 20
693.0458206591808
 30
0.0
 10
61.50126302378528
 20
692.7925468636531
 30
0.0
 10
61.86015063998052
 20
692.4126021941677
 30
0.0
 10
62.35937361927024
 20
692.0413770624967
 30
0.0
 10
62.74528193586531
 20
691.7971304178276
 30
0.0
 10
62.93118025136047
 20
691.679472834778
 30
0.0
  0
LINE
  5
342
330
1F
100
AcDbEntity
  8
0
  6
Continuous
 62
     7
370
    25
100
AcDbLine
 10
61.4382513192
 20
446.7794728348
 30
0.0
 11
61.4382513192
 21
447.5794728348
 31
0.0
  0
SPLINE
  5
343
330
1F
100
AcDbEntity
  8
0
  6
Continuous
 62
     7
370
    25
100
AcDbSpline
210
0.0
220
0.0
230
1.0
 70
     8
 71
     3
 72
    11
 73
     7
 74
     0
 42
0.00000001
 43
0.00000001
 40
0.0
 40
0.0
 40
0.0
 40
0.0
 40
0.2543211584721305
 40
0.5088664984542401
 40
0.7634130007197252
 40
0.9999999999999999
 40
0.9999999999999999
 40
0.9999999999999999
 40
0.9999999999999999
 10
61.43825131917235
 20
447.5794728347776
 30
0.0
 10
61.56483242695787
 20
447.6028268967967
 30
0.0
 10
61.81810622248557
 20
447.6495556072026
 30
0.0
 10
62.19805089197089
 20
448.0084432233976
 30
0.0
 10
62.56927602364159
 20
448.5076662026873
 30
0.0
 10
62.8135226683108
 20
448.8935745192825
 30
0.0
 10
62.93118025136047
 20
449.0794728347776
 30
0.0
  0
CIRCLE
  5
344
330
1F
100
AcDbEntity
  8
0
  6
Continuous
 62
     7
370
    25
100
AcDbCircle
 10
138.1784026614
 20
673.9794728348
 30
0.0
 40
2.700000000000045
  0
CIRCLE
  5
345
330
1F
100
AcDbEntity
  8
0
  6
Continuous
 62
     7
370
    25
100
AcDbCircle
 10
528.1784026614
 20
673.9794728348
 30
0.0
 40
2.700000000000045
  0
CIRCLE
  5
346
330
1F
100
AcDbEntity
  8
0
  6
Continuous
 62
     7
370
    25
100
AcDbCircle
 10
908.1784026614
 20
673.9794728348
 30
0.0
 40
2.700000000000045
  0
SPLINE
  5
347
330
1F
100
AcDbEntity
  8
0
  6
Continuous
 62
     7
370
    25
100
AcDbSpline
210
0.0
220
0.0
230
1.0
 70
     8
 71
     3
 72
    12
 73
     8
 74
     0
 42
0.00000001
 43
0.00000001
 40
0.0
 40
0.0
 40
0.0
 40
0.0
 40
0.2028202020467089
 40
0.4049472449427026
 40
0.6098312030740876
 40
0.8226939241827202
 40
1.0
 40
1.0
 40
1.0
 40
1.0
 10
101.1841227261804
 20
437.4794728347728
 30
0.0
 10
101.1845794757753
 20
437.3223319942374
 30
0.0
 10
101.1854914139757
 20
437.0085873583449
 30
0.0
 10
101.192813976958
 20
436.5881911078756
 30
0.0
 10
101.2045352731486
 20
436.2611125724358
 30
0.0
 10
101.2198609295991
 20
436.06290330617
 30
0.0
 10
101.2322414252072
 20
436.039918100248
 30
0.0
 10
101.2378675467993
 20
436.0294728347731
 30
0.0
  0
LINE
  5
348
330
1F
100
AcDbEntity
  8
0
  6
Continuous
 62
     7
370
    25
100
AcDbLine
 10
101.1841227262
 20
437.4794728348
 30
0.0
 11
107.3342421383
 21
437.4794728348
 31
0.0
  0
SPLINE
  5
349
330
1F
100
AcDbEntity
  8
0
  6
Continuous
 62
     7
370
    25
100
AcDbSpline
210
0.0
220
0.0
230
1.0
 70
     8
 71
     3
 72
    12
 73
     8
 74
     0
 42
0.00000001
 43
0.00000001
 40
0.0
 40
0.0
 40
0.0
 40
0.0
 40
0.2289440738516033
 40
0.4594214300241447
 40
0.6825355698157726
 40
0.8947175231628804
 40
1.0
 40
1.0
 40
1.0
 40
1.0
 10
107.2372487380164
 20
436.0294728347732
 30
0.0
 10
107.2495488952113
 20
436.0468073193508
 30
0.0
 10
107.2742315861102
 20
436.0815923808699
 30
0.0
 10
107.3039322684298
 20
436.3554622266822
 30
0.0
 10
107.3243719931541
 20
436.7524987611652
 30
0.0
 10
107.3332388055965
 20
437.1533747505179
 30
0.0
 10
107.3339922645436
 20
437.3982601436049
 30
0.0
 10
107.3342421382825
 20
437.4794728347731
 30
0.0
  0
LINE
  5
34A
330
1F
100
AcDbEntity
  8
0
  6
Continuous
 62
     7
370
    25
100
AcDbLine
 10
107.237248738
 20
436.0294728348
 30
0.0
 11
101.2378675468
 21
436.0294728348
 31
0.0
  0
LINE
  5
34B
330
1F
100
AcDbEntity
  8
0
  6
Continuous
 62
     7
370
    25
100
AcDbLine
 10
101.1841227262
 20
442.5794728348
 30
0.0
 11
101.1841227262
 21
437.4794728348
 31
0.0
  0
LINE
  5
34C
330
1F
100
AcDbEntity
  8
0
  6
Continuous
 62
     7
370
    25
100
AcDbLine
 10
107.3342421383
 20
442.5794728348
 30
0.0
 11
101.1841227262
 21
442.5794728348
 31
0.0
  0
LINE
  5
34D
330
1F
100
AcDbEntity
  8
0
  6
Continuous
 62
     7
370
    25
100
AcDbLine
 10
107.3342421383
 20
437.4794728348
 30
0.0
 11
107.3342421383
 21
442.5794728348
 31
0.0
  0
LINE
  5
34E
330
1F
100
AcDbEntity
  8
0
  6
Continuous
 62
     7
370
    25
100
AcDbLine
 10
101.256068492
 20
442.8294728348
 30
0.0
 11
107.2554496832
 21
442.8294728348
 31
0.0
  0
LWPOLYLINE
  5
34F
330
1F
100
AcDbEntity
  8
0
  6
Continuous
 62
     7
370
    25
100
AcDbPolyline
 90
        9
 70
   128
 43
0.0
 10
107.2554496832
 20
442.8294728348
 10
107.2708213286
 20
442.8246691549
 10
107.2856022504
 20
442.8104427179
 10
107.2992244258
 20
442.7873402378
 10
107.3111643625
 20
442.7562495301
 10
107.3209632153
 20
442.718365393
 10
107.3282444198
 20
442.6751436929
 10
107.3327281634
 20
442.6282454153
 10
107.3342421383
 20
442.5794728348
  0
LWPOLYLINE
  5
350
330
1F
100
AcDbEntity
  8
0
  6
Continuous
 62
     7
370
    25
100
AcDbPolyline
 90
        9
 70
   128
 43
0.0
 10
101.256068492
 20
442.8294728348
 10
101.2420325694
 20
442.8246691549
 10
101.2285360394
 20
442.8104427179
 10
101.2160975661
 20
442.7873402378
 10
101.2051951531
 20
442.7562495301
 10
101.196247774
 20
442.718365393
 10
101.1895992715
 20
442.6751436929
 10
101.1855051439
 20
442.6282454153
 10
101.1841227262
 20
442.5794728348
  0
SPLINE
  5
351
330
1F
100
AcDbEntity
  8
0
  6
Continuous
 62
     7
370
    25
100
AcDbSpline
210
0.0
220
0.0
230
1.0
 70
     8
 71
     3
 72
    12
 73
     8
 74
     0
 42
0.00000001
 43
0.00000001
 40
0.0
 40
0.0
 40
0.0
 40
0.0
 40
0.1789601577904965
 40
0.3929009169381988
 40
0.5976976172813099
 40
0.798783367843842
 40
1.0
 40
1.0
 40
1.0
 40
1.0
 10
100.9878933304986
 20
436.2794728347731
 30
0.0
 10
100.9895515059832
 20
436.2880848046271
 30
0.0
 10
100.9931919736514
 20
436.3069920904389
 30
0.0
 10
100.998349267327
 20
436.4705281155904
 30
0.0
 10
101.0026430245469
 20
436.7411004273562
 30
0.0
 10
101.0055351205596
 20
437.0892305469162
 30
0.0
 10
101.0059078502196
 20
437.3493638623095
 30
0.0
 10
101.00609427568
 20
437.4794728347728
 30
0.0
  0
LINE
  5
352
330
1F
100
AcDbEntity
  8
0
  6
Continuous
 62
     7
370
    25
100
AcDbLine
 10
101.0060942757
 20
437.4794728348
 30
0.0
 11
101.1841227262
 21
437.4794728348
 31
0.0
  0
ARC
  5
353
330
1F
100
AcDbEntity
  8
0
  6
Continuous
 62
     7
370
    25
100
AcDbCircle
 10
101.2378804393
 20
436.2794599436
 30
0.0
 40
0.2499871091477009
100
AcDbArc
 50
179.9970454057
 51
269.9970451009
  0
LINE
  5
354
330
1F
100
AcDbEntity
  8
0
  6
Continuous
 62
     7
370
    25
100
AcDbLine
 10
107.3342421383
 20
437.4794728348
 30
0.0
 11
107.5054238995
 21
437.4794728348
 31
0.0
  0
SPLINE
  5
355
330
1F
100
AcDbEntity
  8
0
  6
Continuous
 62
     7
370
    25
100
AcDbSpline
210
0.0
220
0.0
230
1.0
 70
     8
 71
     3
 72
    12
 73
     8
 74
     0
 42
0.00000001
 43
0.00000001
 40
0.0
 40
0.0
 40
0.0
 40
0.0
 40
0.1044203826439078
 40
0.3151731030979955
 40
0.5377472974585913
 40
0.7690283494734668
 40
1.0
 40
1.0
 40
1.0
 40
1.0
 10
107.505423899499
 20
437.4794728347731
 30
0.0
 10
107.5053724957575
 20
437.4122532661365
 30
0.0
 10
107.5052173433217
 20
437.2093637583635
 30
0.0
 10
107.5033891080236
 20
436.8770063931986
 30
0.0
 10
107.4993175121948
 20
436.548361604945
 30
0.0
 10
107.4936578216781
 20
436.3222998920689
 30
0.0
 10
107.4893669527627
 20
436.2937421489816
 30
0.0
 10
107.4872229543174
 20
436.2794728347731
 30
0.0
  0
LINE
  5
356
330
1F
100
AcDbEntity
  8
0
  6
Continuous
 62
     7
370
    25
100
AcDbLine
 10
101.0060942757
 20
442.5794728348
 30
0.0
 11
101.1841227262
 21
442.5794728348
 31
0.0
  0
ARC
  5
357
330
1F
100
AcDbEntity
  8
0
  6
Continuous
 62
     7
370
    25
100
AcDbCircle
 10
101.2560813845
 20
442.579485726
 30
0.0
 40
0.2499871091478406
100
AcDbArc
 50
90.0029548991
 51
180.0029545942
  0
LINE
  5
358
330
1F
100
AcDbEntity
  8
0
  6
Continuous
 62
     7
370
    25
100
AcDbLine
 10
101.0060942757
 20
437.4794728348
 30
0.0
 11
101.0060942757
 21
442.5794728348
 31
0.0
  0
ARC
  5
359
330
1F
100
AcDbEntity
  8
0
  6
Continuous
 62
     7
370
    25
100
AcDbCircle
 10
107.2554367907
 20
442.579485726
 30
0.0
 40
0.2499871091474427
100
AcDbArc
 50
359.9970454057
 51
89.997045101
  0
LINE
  5
35A
330
1F
100
AcDbEntity
  8
0
  6
Continuous
 62
     7
370
    25
100
AcDbLine
 10
107.3342421383
 20
442.5794728348
 30
0.0
 11
107.5054238995
 21
442.5794728348
 31
0.0
  0
LINE
  5
35B
330
1F
100
AcDbEntity
  8
0
  6
Continuous
 62
     7
370
    25
100
AcDbLine
 10
107.5054238995
 20
442.5794728348
 30
0.0
 11
107.5054238995
 21
437.4794728348
 31
0.0
  0
LINE
  5
35C
330
1F
100
AcDbEntity
  8
0
  6
Continuous
 62
     7
370
    25
100
AcDbLine
 10
100.9955101955
 20
442.5794728348
 30
0.0
 11
100.9955101955
 21
437.4794728348
 31
0.0
  0
LINE
  5
35D
330
1F
100
AcDbEntity
  8
0
  6
Continuous
 62
     7
370
    25
100
AcDbLine
 10
101.0060942757
 20
442.5794728348
 30
0.0
 11
100.9955101955
 21
442.5794728348
 31
0.0
  0
LINE
  5
35E
330
1F
100
AcDbEntity
  8
0
  6
Continuous
 62
     7
370
    25
100
AcDbLine
 10
100.9857465405
 20
436.2794728348
 30
0.0
 11
100.9878933305
 21
436.2794728348
 31
0.0
  0
LINE
  5
35F
330
1F
100
AcDbEntity
  8
0
  6
Continuous
 62
     7
370
    25
100
AcDbLine
 10
100.9857465405
 20
436.9794728348
 30
0.0
 11
100.9857465405
 21
436.2794728348
 31
0.0
  0
LINE
  5
360
330
1F
100
AcDbEntity
  8
0
  6
Continuous
 62
     7
370
    25
100
AcDbLine
 10
100.9878933305
 20
436.9794728348
 30
0.0
 11
100.9857465405
 21
436.9794728348
 31
0.0
  0
SPLINE
  5
361
330
1F
100
AcDbEntity
  8
0
  6
Continuous
 62
     7
370
    25
100
AcDbSpline
210
0.0
220
0.0
230
1.0
 70
     8
 71
     3
 72
     9
 73
     5
 74
     0
 42
0.00000001
 43
0.00000001
 40
0.0
 40
0.0
 40
0.0
 40
0.0
 40
0.4280612222237856
 40
1.0
 40
1.0
 40
1.0
 40
1.0
 10
100.9942778776771
 20
437.2152933701128
 30
0.0
 10
100.9945966372353
 20
437.2494857750285
 30
0.0
 10
100.99534129604
 20
437.3293631456953
 30
0.0
 10
100.9954487426578
 20
437.4248564888202
 30
0.0
 10
100.995510195545
 20
437.4794728347728
 30
0.0
  0
ARC
  5
362
330
1F
100
AcDbEntity
  8
0
  6
Continuous
 62
     7
370
    25
100
AcDbCircle
 10
101.2454973044
 20
442.579485726
 30
0.0
 40
0.2499871091478857
100
AcDbArc
 50
90.0029548992
 51
180.0029545942
  0
LINE
  5
363
330
1F
100
AcDbEntity
  8
0
  6
Continuous
 62
     7
370
    25
100
AcDbLine
 10
101.2454844118
 20
442.8294728348
 30
0.0
 11
101.256068492
 21
442.8294728348
 31
0.0
  0
SPLINE
  5
364
330
1F
100
AcDbEntity
  8
0
  6
Continuous
 62
     7
370
    25
100
AcDbSpline
210
0.0
220
0.0
230
1.0
 70
     8
 71
     3
 72
    13
 73
     9
 74
     0
 42
0.00000001
 43
0.00000001
 40
0.0
 40
0.0
 40
0.0
 40
0.0
 40
0.169541105060079
 40
0.3386458383077006
 40
0.5184804584265439
 40
0.7277236211485463
 40
0.9924537768854369
 40
1.0
 40
1.0
 40
1.0
 40
1.0
 10
100.9857465404981
 20
436.2794728347731
 30
0.0
 10
100.9878716113974
 20
436.2548616874864
 30
0.0
 10
100.9921162836019
 20
436.205702738088
 30
0.0
 10
101.0243591178538
 20
436.1395669447076
 30
0.0
 10
101.0730595552873
 20
436.0838953416032
 30
0.0
 10
101.1431806152652
 20
436.0411765623311
 30
0.0
 10
101.2003293894482
 20
436.0295909027188
 30
0.0
 10
101.2323817915431
 20
436.0294760188156
 30
0.0
 10
101.2332701336702
 20
436.0294728347731
 30
0.0
  0
LINE
  5
365
330
1F
100
AcDbEntity
  8
0
  6
Continuous
 62
     7
370
    25
100
AcDbLine
 10
101.2378675468
 20
436.0294728348
 30
0.0
 11
101.2332701337
 21
436.0294728348
 31
0.0
  0
LINE
  5
366
330
1F
100
AcDbEntity
  8
0
  6
Continuous
 62
     7
370
    25
100
AcDbLine
 10
101.2332701337
 20
436.0294728348
 30
0.0
 11
95.8896401654
 21
436.0294728348
 31
0.0
  0
LINE
  5
367
330
1F
100
AcDbEntity
  8
0
  6
Continuous
 62
     7
370
    25
100
AcDbLine
 10
96.4873504207
 20
437.2294728348
 30
0.0
 11
101.0017712037
 21
437.2294728348
 31
0.0
  0
LINE
  5
368
330
1F
100
AcDbEntity
  8
0
  6
Continuous
 62
     7
370
    25
100
AcDbLine
 10
112.5695099708
 20
436.0294728348
 30
0.0
 11
107.2326513249
 21
436.0294728348
 31
0.0
  0
LINE
  5
369
330
1F
100
AcDbEntity
  8
0
  6
Continuous
 62
     7
370
    25
100
AcDbLine
 10
107.4063821937
 20
437.2294728348
 30
0.0
 11
112.2243169104
 21
437.2294728348
 31
0.0
  0
LINE
  5
36A
330
1F
100
AcDbEntity
  8
0
  6
Continuous
 62
     7
370
    25
100
AcDbLine
 10
112.5541219669
 20
437.2294728348
 30
0.0
 11
112.5695099708
 21
437.2294728348
 31
0.0
  0
SPLINE
  5
36B
330
1F
100
AcDbEntity
  8
0
  6
Continuous
 62
     7
370
    25
100
AcDbSpline
210
0.0
220
0.0
230
1.0
 70
     8
 71
     3
 72
    13
 73
     9
 74
     0
 42
0.00000001
 43
0.00000001
 40
0.0
 40
0.0
 40
0.0
 40
0.0
 40
0.1695411050602519
 40
0.3386458383075028
 40
0.5184804584263427
 40
0.7277236211482724
 40
0.9924537768849508
 40
0.9999999999999999
 40
0.9999999999999999
 40
0.9999999999999999
 40
0.9999999999999999
 10
112.4252685398389
 20
437.479472834773
 30
0.0
 10
112.4236516883145
 20
437.4548616874864
 30
0.0
 10
112.420422146784
 20
437.4057027380881
 30
0.0
 10
112.3958503580422
 20
437.3395669447074
 30
0.0
 10
112.3586183665396
 20
437.2838953416031
 30
0.0
 10
112.304773213169
 20
437.241176562331
 30
0.0
 10
112.26060707756
 20
437.2295909027186
 30
0.0
 10
112.2357359942268
 20
437.2294760188155
 30
0.0
 10
112.2350466845455
 20
437.229472834773
 30
0.0
  0
LINE
  5
36C
330
1F
100
AcDbEntity
  8
0
  6
Continuous
 62
     7
370
    25
100
AcDbLine
 10
112.2350466845
 20
437.2294728348
 30
0.0
 11
107.5367761316
 21
437.2294728348
 31
0.0
  0
LINE
  5
36D
330
1F
100
AcDbEntity
  8
0
  6
Continuous
 62
     7
370
    25
100
AcDbLine
 10
100.9579295693
 20
437.2294728348
 30
0.0
 11
96.4873504207
 21
437.2294728348
 31
0.0
  0
SPLINE
  5
36E
330
1F
100
AcDbEntity
  8
0
  6
Continuous
 62
     7
370
    25
100
AcDbSpline
210
0.0
220
0.0
230
1.0
 70
     8
 71
     3
 72
    13
 73
     9
 74
     0
 42
0.00000001
 43
0.00000001
 40
0.0
 40
0.0
 40
0.0
 40
0.0
 40
0.1695411050600559
 40
0.3386458383077899
 40
0.5184804584270911
 40
0.7277236211488084
 40
0.9924537768854323
 40
1.0
 40
1.0
 40
1.0
 40
1.0
 10
96.33740999566281
 20
437.4794728347729
 30
0.0
 10
96.33868105567173
 20
437.4548616874862
 30
0.0
 10
96.34121990418343
 20
437.4057027380878
 30
0.0
 10
96.3605450465867
 20
437.3395669447073
 30
0.0
 10
96.38985208952033
 20
437.2838953416032
 30
0.0
 10
96.43228599945309
 20
437.2411765623306
 30
0.0
 10
96.4671512991297
 20
437.2295909027185
 30
0.0
 10
96.48680569312162
 20
437.2294760188154
 30
0.0
 10
96.48735042066225
 20
437.2294728347729
 30
0.0
  0
LINE
  5
36F
330
1F
100
AcDbEntity
  8
0
  6
Continuous
 62
     7
370
    25
100
AcDbLine
 10
96.4873504207
 20
438.4294728348
 30
0.0
 11
101.0786234098
 21
438.4294728348
 31
0.0
  0
LINE
  5
370
330
1F
100
AcDbEntity
  8
0
  6
Continuous
 62
     7
370
    25
100
AcDbLine
 10
107.5054238995
 20
438.4294728348
 30
0.0
 11
112.2350466845
 21
438.4294728348
 31
0.0
  0
SPLINE
  5
371
330
1F
100
AcDbEntity
  8
0
  6
Continuous
 62
     7
370
    25
100
AcDbSpline
210
0.0
220
0.0
230
1.0
 70
     8
 71
     3
 72
    13
 73
     9
 74
     0
 42
0.00000001
 43
0.00000001
 40
0.0
 40
0.0
 40
0.0
 40
0.0
 40
0.007546223115411
 40
0.2722763788511567
 40
0.4815195415733028
 40
0.6613541616922374
 40
0.8304588949397771
 40
1.0
 40
1.0
 40
1.0
 40
1.0
 10
112.2350466845456
 20
438.429472834773
 30
0.0
 10
112.2357359942269
 20
438.4294696507305
 30
0.0
 10
112.2606070775582
 20
438.4293547668273
 30
0.0
 10
112.3047732131697
 20
438.417769107215
 30
0.0
 10
112.3586183665395
 20
438.3750503279429
 30
0.0
 10
112.3958503580423
 20
438.3193787248385
 30
0.0
 10
112.420422146784
 20
438.2532429314581
 30
0.0
 10
112.4236516883145
 20
438.2040839820597
 30
0.0
 10
112.425268539839
 20
438.179472834773
 30
0.0
  0
SPLINE
  5
372
330
1F
100
AcDbEntity
  8
0
  6
Continuous
 62
     7
370
    25
100
AcDbSpline
210
0.0
220
0.0
230
1.0
 70
     8
 71
     3
 72
    13
 73
     9
 74
     0
 42
0.00000001
 43
0.00000001
 40
0.0
 40
0.0
 40
0.0
 40
0.0
 40
0.0075462231144421
 40
0.2722763788513214
 40
0.4815195415729941
 40
0.6613541616925163
 40
0.8304588949399115
 40
0.9999999999999999
 40
0.9999999999999999
 40
0.9999999999999999
 40
0.9999999999999999
 10
96.48735042066231
 20
438.4294728347729
 30
0.0
 10
96.48680569312157
 20
438.4294696507304
 30
0.0
 10
96.46715129913119
 20
438.4293547668273
 30
0.0
 10
96.43228599945247
 20
438.4177691072151
 30
0.0
 10
96.38985208952056
 20
438.3750503279425
 30
0.0
 10
96.36054504658664
 20
438.3193787248384
 30
0.0
 10
96.34121990418376
 20
438.253242931458
 30
0.0
 10
96.33868105567178
 20
438.2040839820596
 30
0.0
 10
96.33740999566275
 20
438.1794728347729
 30
0.0
  0
LINE
  5
373
330
1F
100
AcDbEntity
  8
0
  6
Continuous
 62
     7
370
    25
100
AcDbLine
 10
112.4252685398
 20
437.4794728348
 30
0.0
 11
112.4252685398
 21
438.1794728348
 31
0.0
  0
LINE
  5
374
330
1F
100
AcDbEntity
  8
0
  6
Continuous
 62
     7
370
    25
100
AcDbLine
 10
96.3374099957
 20
437.4794728348
 30
0.0
 11
96.3374099957
 21
438.1794728348
 31
0.0
  0
SPLINE
  5
375
330
1F
100
AcDbEntity
  8
0
  6
Continuous
 62
     7
370
    25
100
AcDbSpline
210
0.0
220
0.0
230
1.0
 70
     8
 71
     3
 72
    12
 73
     8
 74
     0
 42
0.00000001
 43
0.00000001
 40
0.0
 40
0.0
 40
0.0
 40
0.0
 40
0.1789601577903801
 40
0.3929009169381164
 40
0.597697617281272
 40
0.7987833678438173
 40
1.0
 40
1.0
 40
1.0
 40
1.0
 10
96.18841585346011
 20
438.1794728347729
 30
0.0
 10
96.07333313281258
 20
438.170860864919
 30
0.0
 10
95.82067294842034
 20
438.1519535791073
 30
0.0
 10
95.46274015240702
 20
437.9884175539551
 30
0.0
 10
95.16473956846689
 20
437.7178452421894
 30
0.0
 10
94.96401878793037
 20
437.3697151226297
 30
0.0
 10
94.93815014871404
 20
437.1095818072362
 30
0.0
 10
94.92521162116552
 20
436.9794728347728
 30
0.0
  0
LINE
  5
376
330
1F
100
AcDbEntity
  8
0
  6
Continuous
 62
     7
370
    25
100
AcDbLine
 10
94.9252116212
 20
436.9794728348
 30
0.0
 11
94.6735523366
 21
436.9794728348
 31
0.0
  0
SPLINE
  5
377
330
1F
100
AcDbEntity
  8
0
  6
Continuous
 62
     7
370
    25
100
AcDbSpline
210
0.0
220
0.0
230
1.0
 70
     8
 71
     3
 72
    12
 73
     8
 74
     0
 42
0.00000001
 43
0.00000001
 40
0.0
 40
0.0
 40
0.0
 40
0.0
 40
0.2028202020467379
 40
0.4049472449426617
 40
0.6098312030740426
 40
0.8226939241827657
 40
1.0
 40
1.0
 40
1.0
 40
1.0
 10
94.6735523365509
 20
436.9794728347728
 30
0.0
 10
94.68888368353012
 20
437.1366136753082
 30
0.0
 10
94.7194939810146
 20
437.4503583112008
 30
0.0
 10
94.95715857940068
 20
437.8707545616703
 30
0.0
 10
95.30995888166977
 20
438.1978330971099
 30
0.0
 10
95.7335724647453
 20
438.396042363376
 30
0.0
 10
96.03245339729943
 20
438.419027569298
 30
0.0
 10
96.16827513831328
 20
438.4294728347729
 30
0.0
  0
ARC
  5
378
330
1F
100
AcDbEntity
  8
0
  6
Continuous
 62
     7
370
    25
100
AcDbCircle
 10
95.3975185994
 20
438.2415671864
 30
0.0
 40
0.7933310626889981
100
AcDbArc
 50
355.5108439512
 51
13.7010845978
  0
LINE
  5
379
330
1F
100
AcDbEntity
  8
0
  6
Continuous
 62
     7
370
    25
100
AcDbLine
 10
94.9252116212
 20
436.9794728348
 30
0.0
 11
94.9252116212
 21
431.8794728348
 31
0.0
  0
LINE
  5
37A
330
1F
100
AcDbEntity
  8
0
  6
Continuous
 62
     7
370
    25
100
AcDbLine
 10
94.9252116212
 20
431.8794728348
 30
0.0
 11
94.6735523366
 21
431.8794728348
 31
0.0
  0
LINE
  5
37B
330
1F
100
AcDbEntity
  8
0
  6
Continuous
 62
     7
370
    25
100
AcDbLine
 10
94.6735523366
 20
431.8794728348
 30
0.0
 11
94.6735523366
 21
436.9794728348
 31
0.0
  0
ARC
  5
37C
330
1F
100
AcDbEntity
  8
0
  6
Continuous
 62
     7
370
    25
100
AcDbCircle
 10
94.1343143671
 20
431.8173784832
 30
0.0
 40
0.7933310626728498
100
AcDbArc
 50
346.2989154019
 51
4.489156049
  0
ARC
  5
37D
330
1F
100
AcDbEntity
  8
0
  6
Continuous
 62
     7
370
    25
100
AcDbCircle
 10
94.9146804505
 20
431.8705736828
 30
0.0
 40
0.2412922755831624
100
AcDbArc
 50
177.8863827587
 51
267.717573057
  0
LINE
  5
37E
330
1F
100
AcDbEntity
  8
0
  6
Continuous
 62
     7
370
    25
100
AcDbLine
 10
95.6597808805
 20
431.8794728348
 30
0.0
 11
95.6597808805
 21
436.9794728348
 31
0.0
  0
LINE
  5
37F
330
1F
100
AcDbEntity
  8
0
  6
Continuous
 62
     7
370
    25
100
AcDbLine
 10
94.9252116212
 20
431.8794728348
 30
0.0
 11
95.6597808805
 21
431.8794728348
 31
0.0
  0
LINE
  5
380
330
1F
100
AcDbEntity
  8
0
  6
Continuous
 62
     7
370
    25
100
AcDbLine
 10
96.3374099957
 20
438.1794728348
 30
0.0
 11
96.1884158535
 21
438.1794728348
 31
0.0
  0
LINE
  5
381
330
1F
100
AcDbEntity
  8
0
  6
Continuous
 62
     7
370
    25
100
AcDbLine
 10
96.1884158535
 20
437.4794728348
 30
0.0
 11
96.3374099957
 21
437.4794728348
 31
0.0
  0
SPLINE
  5
382
330
1F
100
AcDbEntity
  8
0
  6
Continuous
 62
     7
370
    25
100
AcDbSpline
210
0.0
220
0.0
230
1.0
 70
     8
 71
     3
 72
    12
 73
     8
 74
     0
 42
0.00000001
 43
0.00000001
 40
0.0
 40
0.0
 40
0.0
 40
0.0
 40
0.1818603118646445
 40
0.3964966430177819
 40
0.6005836871107435
 40
0.8002123703305272
 40
1.0
 40
1.0
 40
1.0
 40
1.0
 10
96.18841585346016
 20
437.4794728347729
 30
0.0
 10
96.13958725660315
 20
437.475755083179
 30
0.0
 10
96.03312986335122
 20
437.4676495432103
 30
0.0
 10
95.88322118553461
 20
437.3984948442036
 30
0.0
 10
95.75930061636751
 20
437.2856554372498
 30
0.0
 10
95.67592431121058
 20
437.1412343365045
 30
0.0
 10
95.66516345150022
 20
437.033407638447
 30
0.0
 10
95.65978088052007
 20
436.9794728347728
 30
0.0
  0
ARC
  5
383
330
1F
100
AcDbEntity
  8
0
  6
Continuous
 62
     7
370
    25
100
AcDbCircle
 10
94.8688836264
 20
431.8173784832
 30
0.0
 40
0.7933310626801505
100
AcDbArc
 50
346.298915402
 51
4.4891560489
  0
LINE
  5
384
330
1F
100
AcDbEntity
  8
0
  6
Continuous
 62
     7
370
    25
100
AcDbLine
 10
95.6396401654
 20
431.6294728348
 30
0.0
 11
94.905070906
 21
431.6294728348
 31
0.0
  0
LINE
  5
385
330
1F
100
AcDbEntity
  8
0
  6
Continuous
 62
     7
370
    25
100
AcDbLine
 10
95.3695099708
 20
438.4294728348
 30
0.0
 11
96.1682751383
 21
438.4294728348
 31
0.0
  0
ARC
  5
386
330
1F
100
AcDbEntity
  8
0
  6
Continuous
 62
     7
370
    25
100
AcDbCircle
 10
95.3975185994
 20
437.4173784832
 30
0.0
 40
0.7933310626870949
100
AcDbArc
 50
346.2989154021
 51
4.4891560489
  0
LINE
  5
387
330
1F
100
AcDbEntity
  8
0
  6
Continuous
 62
     7
370
    25
100
AcDbLine
 10
96.4873504207
 20
437.2294728348
 30
0.0
 11
96.1682751383
 21
437.2294728348
 31
0.0
  0
LINE
  5
388
330
1F
100
AcDbEntity
  8
0
  6
Continuous
 62
     7
370
    25
100
AcDbLine
 10
96.1682751383
 20
438.4294728348
 30
0.0
 11
96.4873504207
 21
438.4294728348
 31
0.0
  0
LINE
  5
389
330
1F
100
AcDbEntity
  8
0
  6
Continuous
 62
     7
370
    25
100
AcDbLine
 10
94.905070906
 20
431.6294728348
 30
0.0
 11
94.1695099708
 21
431.6294728348
 31
0.0
  0
LINE
  5
38A
330
1F
100
AcDbEntity
  8
0
  6
Continuous
 62
     7
370
    25
100
AcDbLine
 10
112.4252685398
 20
437.4794728348
 30
0.0
 11
112.574262682
 21
437.4794728348
 31
0.0
  0
ARC
  5
38B
330
1F
100
AcDbEntity
  8
0
  6
Continuous
 62
     7
370
    25
100
AcDbCircle
 10
111.783365428
 20
437.4173784832
 30
0.0
 40
0.7933310626639721
100
AcDbArc
 50
346.2989154019
 51
4.4891560492
  0
LINE
  5
38C
330
1F
100
AcDbEntity
  8
0
  6
Continuous
 62
     7
370
    25
100
AcDbLine
 10
112.5541219669
 20
437.2294728348
 30
0.0
 11
112.2350466845
 21
437.2294728348
 31
0.0
  0
ARC
  5
38D
330
1F
100
AcDbEntity
  8
0
  6
Continuous
 62
     7
370
    25
100
AcDbCircle
 10
111.783365428
 20
438.2415671864
 30
0.0
 40
0.7933310626619615
100
AcDbArc
 50
355.5108439508
 51
13.7010845981
  0
LINE
  5
38E
330
1F
100
AcDbEntity
  8
0
  6
Continuous
 62
     7
370
    25
100
AcDbLine
 10
112.574262682
 20
438.1794728348
 30
0.0
 11
112.4252685398
 21
438.1794728348
 31
0.0
  0
LINE
  5
38F
330
1F
100
AcDbEntity
  8
0
  6
Continuous
 62
     7
370
    25
100
AcDbLine
 10
112.2350466845
 20
438.4294728348
 30
0.0
 11
112.5541219669
 21
438.4294728348
 31
0.0
  0
SPLINE
  5
390
330
1F
100
AcDbEntity
  8
0
  6
Continuous
 62
     7
370
    25
100
AcDbSpline
210
0.0
220
0.0
230
1.0
 70
     8
 71
     3
 72
    12
 73
     8
 74
     0
 42
0.00000001
 43
0.00000001
 40
0.0
 40
0.0
 40
0.0
 40
0.0
 40
0.104420382643906
 40
0.3151731030979895
 40
0.5377472974585834
 40
0.7690283494734399
 40
1.0
 40
1.0
 40
1.0
 40
1.0
 10
113.8374669143363
 20
436.9794728347733
 30
0.0
 10
113.8338993290753
 20
437.0466924034098
 30
0.0
 10
113.8231312501928
 20
437.2495819111829
 30
0.0
 10
113.6962458306235
 20
437.5819392763478
 30
0.0
 10
113.4136639629307
 20
437.9105840646014
 30
0.0
 10
113.0208632076209
 20
438.1366457774774
 30
0.0
 10
112.7230630813099
 20
438.1652035205649
 30
0.0
 10
112.5742626820414
 20
438.1794728347733
 30
0.0
  0
LINE
  5
391
330
1F
100
AcDbEntity
  8
0
  6
Continuous
 62
     7
370
    25
100
AcDbLine
 10
113.8374669143
 20
431.8794728348
 30
0.0
 11
113.8374669143
 21
436.9794728348
 31
0.0
  0
LINE
  5
392
330
1F
100
AcDbEntity
  8
0
  6
Continuous
 62
     7
370
    25
100
AcDbLine
 10
113.102897655
 20
431.8794728348
 30
0.0
 11
113.8374669143
 21
431.8794728348
 31
0.0
  0
LINE
  5
393
330
1F
100
AcDbEntity
  8
0
  6
Continuous
 62
     7
370
    25
100
AcDbLine
 10
113.102897655
 20
436.9794728348
 30
0.0
 11
113.102897655
 21
431.8794728348
 31
0.0
  0
SPLINE
  5
394
330
1F
100
AcDbEntity
  8
0
  6
Continuous
 62
     7
370
    25
100
AcDbSpline
210
0.0
220
0.0
230
1.0
 70
     8
 71
     3
 72
    12
 73
     8
 74
     0
 42
0.00000001
 43
0.00000001
 40
0.0
 40
0.0
 40
0.0
 40
0.0
 40
0.1009214352040056
 40
0.3119724040343397
 40
0.5359629038280257
 40
0.7681188099357322
 40
1.0
 40
1.0
 40
1.0
 40
1.0
 10
113.102897654982
 20
436.9794728347733
 30
0.0
 10
113.1014901794998
 20
437.0065937934454
 30
0.0
 10
113.0971393346185
 20
437.0904311928993
 30
0.0
 10
113.0446603339368
 20
437.2289023952838
 30
0.0
 10
112.9261519257874
 20
437.3666239332526
 30
0.0
 10
112.7614239036422
 20
437.461425380564
 30
0.0
 10
112.6366251284047
 20
437.4734593914675
 30
0.0
 10
112.5742626820414
 20
437.4794728347732
 30
0.0
  0
SPLINE
  5
395
330
1F
100
AcDbEntity
  8
0
  6
Continuous
 62
     7
370
    25
100
AcDbSpline
210
0.0
220
0.0
230
1.0
 70
     8
 71
     3
 72
    12
 73
     8
 74
     0
 42
0.00000001
 43
0.00000001
 40
0.0
 40
0.0
 40
0.0
 40
0.0
 40
0.2289440738515943
 40
0.4594214300241351
 40
0.6825355698157667
 40
0.8947175231628796
 40
1.0
 40
1.0
 40
1.0
 40
1.0
 10
112.5541219668947
 20
438.4294728347733
 30
0.0
 10
112.7313992799396
 20
438.4121383501957
 30
0.0
 10
113.0871411661555
 20
438.3773532886765
 30
0.0
 10
113.5556751998796
 20
438.1034834428642
 30
0.0
 10
113.8926475565485
 20
437.7064469083812
 30
0.0
 10
114.043863382048
 20
437.3055709190285
 30
0.0
 10
114.0567246653335
 20
437.0606855259414
 30
0.0
 10
114.0609899235195
 20
436.9794728347733
 30
0.0
  0
LINE
  5
396
330
1F
100
AcDbEntity
  8
0
  6
Continuous
 62
     7
370
    25
100
AcDbLine
 10
114.0609899235
 20
436.9794728348
 30
0.0
 11
113.8374669143
 21
436.9794728348
 31
0.0
  0
ARC
  5
397
330
1F
100
AcDbEntity
  8
0
  6
Continuous
 62
     7
370
    25
100
AcDbCircle
 10
112.3120004009
 20
431.8173784832
 30
0.0
 40
0.7933310626983093
100
AcDbArc
 50
346.2989154022
 51
4.4891560487
  0
LINE
  5
398
330
1F
100
AcDbEntity
  8
0
  6
Continuous
 62
     7
370
    25
100
AcDbLine
 10
113.8173261992
 20
431.6294728348
 30
0.0
 11
113.0827569398
 21
431.6294728348
 31
0.0
  0
ARC
  5
399
330
1F
100
AcDbEntity
  8
0
  6
Continuous
 62
     7
370
    25
100
AcDbCircle
 10
113.0465696603
 20
431.8173784832
 30
0.0
 40
0.79333106267361
100
AcDbArc
 50
346.298915402
 51
4.489156049
  0
LINE
  5
39A
330
1F
100
AcDbEntity
  8
0
  6
Continuous
 62
     7
370
    25
100
AcDbLine
 10
112.5541219669
 20
438.4294728348
 30
0.0
 11
112.8695099708
 21
438.4294728348
 31
0.0
  0
LINE
  5
39B
330
1F
100
AcDbEntity
  8
0
  6
Continuous
 62
     7
370
    25
100
AcDbLine
 10
114.0609899235
 20
436.9794728348
 30
0.0
 11
114.0609899235
 21
431.8794728348
 31
0.0
  0
LINE
  5
39C
330
1F
100
AcDbEntity
  8
0
  6
Continuous
 62
     7
370
    25
100
AcDbLine
 10
114.0609899235
 20
431.8794728348
 30
0.0
 11
113.8374669143
 21
431.8794728348
 31
0.0
  0
ARC
  5
39D
330
1F
100
AcDbEntity
  8
0
  6
Continuous
 62
     7
370
    25
100
AcDbCircle
 10
113.8141168689
 20
431.8763448453
 30
0.0
 40
0.2468928702809585
100
AcDbArc
 50
270.7448018121
 51
0.7259237107
  0
LINE
  5
39E
330
1F
100
AcDbEntity
  8
0
  6
Continuous
 62
     7
370
    25
100
AcDbLine
 10
113.0827569398
 20
431.6294728348
 30
0.0
 11
112.5993797763
 21
431.6294728348
 31
0.0
  0
ARC
  5
39F
330
1F
100
AcDbEntity
  8
0
  6
Continuous
 62
     7
370
    25
100
AcDbCircle
 10
112.6102595233
 20
431.8694989063
 30
0.0
 40
0.2402725200836651
100
AcDbArc
 50
177.6209170565
 51
267.4047102698
  0
LINE
  5
3A0
330
1F
100
AcDbEntity
  8
0
  6
Continuous
 62
     7
370
    25
100
AcDbLine
 10
114.0695099708
 20
431.6294728348
 30
0.0
 11
113.8173261992
 21
431.6294728348
 31
0.0
  0
LINE
  5
3A1
330
1F
100
AcDbEntity
  8
0
  6
Continuous
 62
     7
370
    25
100
AcDbLine
 10
104.5328248436
 20
446.7794728348
 30
0.0
 11
104.5328248436
 21
444.3260548222
 31
0.0
  0
SPLINE
  5
3A2
330
1F
100
AcDbEntity
  8
0
  6
Continuous
 62
     7
370
    25
100
AcDbSpline
210
0.0
220
0.0
230
1.0
 70
     8
 71
     3
 72
     9
 73
     5
 74
     0
 42
0.00000001
 43
0.00000001
 40
0.0
 40
0.0
 40
0.0
 40
0.0
 40
0.0702005767034241
 40
1.0
 40
1.0
 40
1.0
 40
1.0
 10
101.9359104485487
 20
443.8794728347731
 30
0.0
 10
101.9974726854937
 20
443.8799189510407
 30
0.0
 10
102.8744204234738
 20
443.8862738314211
 30
0.0
 10
103.7337866353935
 20
444.1141633133166
 30
0.0
 10
104.5328248436367
 20
444.3260548221584
 30
0.0
  0
LINE
  5
3A3
330
1F
100
AcDbEntity
  8
0
  6
Continuous
 62
     7
370
    25
100
AcDbLine
 10
99.3389960535
 20
444.3260548222
 30
0.0
 11
101.9359104485
 21
443.8794728348
 31
0.0
  0
LINE
  5
3A4
330
1F
100
AcDbEntity
  8
0
  6
Continuous
 62
     7
370
    25
100
AcDbLine
 10
99.3389960535
 20
446.7794728348
 30
0.0
 11
99.3389960535
 21
444.3260548222
 31
0.0
  0
SPLINE
  5
3A5
330
1F
100
AcDbEntity
  8
0
  6
Continuous
 62
     7
370
    25
100
AcDbSpline
210
0.0
220
0.0
230
1.0
 70
     8
 71
     3
 72
     9
 73
     5
 74
     0
 42
0.00000001
 43
0.00000001
 40
0.0
 40
0.0
 40
0.0
 40
0.0
 40
0.268633605055562
 40
1.0
 40
1.0
 40
1.0
 40
1.0
 10
106.9230818023267
 20
443.8794728347732
 30
0.0
 10
106.7057405609951
 20
443.8861017873576
 30
0.0
 10
105.8966785626403
 20
443.910778344794
 30
0.0
 10
105.1089459816072
 20
444.150633108394
 30
0.0
 10
104.5328248436367
 20
444.3260548221584
 30
0.0
  0
LINE
  5
3A6
330
1F
100
AcDbEntity
  8
0
  6
Continuous
 62
     7
370
    25
100
AcDbLine
 10
106.9230818023
 20
443.8794728348
 30
0.0
 11
101.9359104485
 21
443.8794728348
 31
0.0
  0
LINE
  5
3A7
330
1F
100
AcDbEntity
  8
0
  6
Continuous
 62
     7
370
    25
100
AcDbLine
 10
109.313338761
 20
446.7794728348
 30
0.0
 11
109.313338761
 21
444.3260548222
 31
0.0
  0
SPLINE
  5
3A8
330
1F
100
AcDbEntity
  8
0
  6
Continuous
 62
     7
370
    25
100
AcDbSpline
210
0.0
220
0.0
230
1.0
 70
     8
 71
     3
 72
     9
 73
     5
 74
     0
 42
0.00000001
 43
0.00000001
 40
0.0
 40
0.0
 40
0.0
 40
0.0
 40
0.2575513451038031
 40
1.0
 40
1.0
 40
1.0
 40
1.0
 10
109.3133387610167
 20
444.3260548221584
 30
0.0
 10
109.1126725364367
 20
444.2586395993835
 30
0.0
 10
108.3335415849013
 20
443.9968851024396
 30
0.0
 10
107.5240716595686
 20
443.929501614647
 30
0.0
 10
106.9230818023267
 20
443.8794728347732
 30
0.0
  0
SPLINE
  5
3A9
330
1F
100
AcDbEntity
  8
0
  6
Continuous
 62
     7
370
    25
100
AcDbSpline
210
0.0
220
0.0
230
1.0
 70
     8
 71
     3
 72
     9
 73
     5
 74
     0
 42
0.00000001
 43
0.00000001
 40
0.0
 40
0.0
 40
0.0
 40
0.0
 40
0.0702005767034407
 40
1.0
 40
1.0
 40
1.0
 40
1.0
 10
99.13233861706256
 20
443.8794728347731
 30
0.0
 10
99.13723762108451
 20
443.8799189510407
 30
0.0
 10
99.20702342986115
 20
443.8862738314211
 30
0.0
 10
99.27541013472086
 20
444.1141633133166
 30
0.0
 10
99.33899605346058
 20
444.3260548221584
 30
0.0
  0
LINE
  5
3AA
330
1F
100
AcDbEntity
  8
0
  6
Continuous
 62
     7
370
    25
100
AcDbLine
 10
101.9359104485
 20
443.8794728348
 30
0.0
 11
99.1323386171
 21
443.8794728348
 31
0.0
  0
LINE
  5
3AB
330
1F
100
AcDbEntity
  8
0
  6
Continuous
 62
     7
370
    25
100
AcDbLine
 10
109.313338761
 20
444.3260548222
 30
0.0
 11
109.1066813246
 21
443.8794728348
 31
0.0
  0
LINE
  5
3AC
330
1F
100
AcDbEntity
  8
0
  6
Continuous
 62
     7
370
    25
100
AcDbLine
 10
106.9230818023
 20
443.8794728348
 30
0.0
 11
109.1107360815
 21
443.8794728348
 31
0.0
  0
LINE
  5
3AD
330
1F
100
AcDbEntity
  8
0
  6
Continuous
 62
     7
370
    25
100
AcDbLine
 10
98.9256811807
 20
444.3260548222
 30
0.0
 11
99.1323386171
 21
443.8794728348
 31
0.0
  0
LINE
  5
3AE
330
1F
100
AcDbEntity
  8
0
  6
Continuous
 62
     7
370
    25
100
AcDbLine
 10
98.9256811807
 20
446.7794728348
 30
0.0
 11
98.9256811807
 21
444.3260548222
 31
0.0
  0
LINE
  5
3AF
330
1F
100
AcDbEntity
  8
0
  6
Continuous
 62
     7
370
    25
100
AcDbLine
 10
101.4549129383
 20
443.1828908474
 30
0.0
 11
104.3388844386
 21
443.6294728348
 31
0.0
  0
SPLINE
  5
3B0
330
1F
100
AcDbEntity
  8
0
  6
Continuous
 62
     7
370
    25
100
AcDbSpline
210
0.0
220
0.0
230
1.0
 70
     8
 71
     3
 72
     9
 73
     5
 74
     0
 42
0.00000001
 43
0.00000001
 40
0.0
 40
0.0
 40
0.0
 40
0.0
 40
0.0702005767034273
 40
0.9999999999999999
 40
0.9999999999999999
 40
0.9999999999999999
 40
0.9999999999999999
 10
104.3388844386054
 20
443.6294728347731
 30
0.0
 10
104.407251627442
 20
443.6290267185055
 30
0.0
 10
105.3811352057131
 20
443.6226718381252
 30
0.0
 10
106.3354938353802
 20
443.3947823562298
 30
0.0
 10
107.2228559388629
 20
443.182890847388
 30
0.0
  0
LINE
  5
3B1
330
1F
100
AcDbEntity
  8
0
  6
Continuous
 62
     7
370
    25
100
AcDbLine
 10
107.2228559389
 20
443.1828908474
 30
0.0
 11
107.2228559389
 21
442.8294728348
 31
0.0
  0
LINE
  5
3B2
330
1F
100
AcDbEntity
  8
0
  6
Continuous
 62
     7
370
    25
100
AcDbLine
 10
101.4549129383
 20
443.1828908474
 30
0.0
 11
101.4549129383
 21
442.8294728348
 31
0.0
  0
SPLINE
  5
3B3
330
1F
100
AcDbEntity
  8
0
  6
Continuous
 62
     7
370
    25
100
AcDbSpline
210
0.0
220
0.0
230
1.0
 70
     8
 71
     3
 72
     9
 73
     5
 74
     0
 42
0.00000001
 43
0.00000001
 40
0.0
 40
0.0
 40
0.0
 40
0.0
 40
0.0997664695816444
 40
1.0
 40
1.0
 40
1.0
 40
1.0
 10
99.90323995433675
 20
438.4294728347732
 30
0.0
 10
99.94003105312093
 20
438.4297656828634
 30
0.0
 10
100.3088032361843
 20
438.4327010186686
 30
0.0
 10
100.6701835341151
 20
438.5915189556256
 30
0.0
 10
100.995510195545
 20
438.7344921877062
 30
0.0
  0
SPLINE
  5
3B4
330
1F
100
AcDbEntity
  8
0
  6
Continuous
 62
     7
370
    25
100
AcDbSpline
210
0.0
220
0.0
230
1.0
 70
     8
 71
     3
 72
     9
 73
     5
 74
     0
 42
0.00000001
 43
0.00000001
 40
0.0
 40
0.0
 40
0.0
 40
0.0
 40
0.0702005767034245
 40
1.0
 40
1.0
 40
1.0
 40
1.0
 10
99.9032399543367
 20
443.6294728347731
 30
0.0
 10
99.9400237852105
 20
443.6290267185055
 30
0.0
 10
100.464005675406
 20
443.6226718381251
 30
0.0
 10
100.9774824911722
 20
443.3947823562297
 30
0.0
 10
101.4549129383478
 20
443.1828908473879
 30
0.0
  0
LINE
  5
3B5
330
1F
100
AcDbEntity
  8
0
  6
Continuous
 62
     7
370
    25
100
AcDbLine
 10
99.9032399543
 20
443.6294728348
 30
0.0
 11
104.3388844386
 21
443.6294728348
 31
0.0
  0
SPLINE
  5
3B6
330
1F
100
AcDbEntity
  8
0
  6
Continuous
 62
     7
370
    25
100
AcDbSpline
210
0.0
220
0.0
230
1.0
 70
     8
 71
     3
 72
     9
 73
     5
 74
     0
 42
0.00000001
 43
0.00000001
 40
0.0
 40
0.0
 40
0.0
 40
0.0
 40
0.3413874750062218
 40
1.0
 40
1.0
 40
1.0
 40
1.0
 10
108.5551544551093
 20
438.4294728347732
 30
0.0
 10
108.433933788088
 20
438.434699963433
 30
0.0
 10
108.0788514376911
 20
438.4500113882581
 30
0.0
 10
107.7331241930508
 20
438.6346438968462
 30
0.0
 10
107.505423899499
 20
438.7562451795233
 30
0.0
  0
SPLINE
  5
3B7
330
1F
100
AcDbEntity
  8
0
  6
Continuous
 62
     7
370
    25
100
AcDbSpline
210
0.0
220
0.0
230
1.0
 70
     8
 71
     3
 72
     9
 73
     5
 74
     0
 42
0.00000001
 43
0.00000001
 40
0.0
 40
0.0
 40
0.0
 40
0.0
 40
0.2686336050555627
 40
1.0
 40
1.0
 40
1.0
 40
1.0
 10
108.5551544551093
 20
443.6294728347731
 30
0.0
 10
108.4340112398192
 20
443.6228438821888
 30
0.0
 10
107.983050477613
 20
443.5981673247524
 30
0.0
 10
107.5439784585593
 20
443.3583125611524
 30
0.0
 10
107.2228559388629
 20
443.182890847388
 30
0.0
  0
LINE
  5
3B8
330
1F
100
AcDbEntity
  8
0
  6
Continuous
 62
     7
370
    25
100
AcDbLine
 10
108.5551544551
 20
443.6294728348
 30
0.0
 11
104.3388844386
 21
443.6294728348
 31
0.0
  0
LINE
  5
3B9
330
1F
100
AcDbEntity
  8
0
  6
Continuous
 62
     7
370
    25
100
AcDbLine
 10
98.3515669703
 20
443.1828908474
 30
0.0
 11
99.9032399543
 21
443.6294728348
 31
0.0
  0
LINE
  5
3BA
330
1F
100
AcDbEntity
  8
0
  6
Continuous
 62
     7
370
    25
100
AcDbLine
 10
98.3515669703
 20
438.8760548222
 30
0.0
 11
99.9032399543
 21
438.4294728348
 31
0.0
  0
LINE
  5
3BB
330
1F
100
AcDbEntity
  8
0
  6
Continuous
 62
     7
370
    25
100
AcDbLine
 10
98.3515669703
 20
443.1828908474
 30
0.0
 11
98.3515669703
 21
438.8760548222
 31
0.0
  0
SPLINE
  5
3BC
330
1F
100
AcDbEntity
  8
0
  6
Continuous
 62
     7
370
    25
100
AcDbSpline
210
0.0
220
0.0
230
1.0
 70
     8
 71
     3
 72
     9
 73
     5
 74
     0
 42
0.00000001
 43
0.00000001
 40
0.0
 40
0.0
 40
0.0
 40
0.0
 40
0.2575513451038073
 40
1.0
 40
1.0
 40
1.0
 40
1.0
 10
109.8874529713557
 20
443.182890847388
 30
0.0
 10
109.7756041961449
 20
443.2503060701629
 30
0.0
 10
109.3413266148501
 20
443.5120605671068
 30
0.0
 10
108.8901384793881
 20
443.5794440548993
 30
0.0
 10
108.5551544551093
 20
443.6294728347731
 30
0.0
  0
LINE
  5
3BD
330
1F
100
AcDbEntity
  8
0
  6
Continuous
 62
     7
370
    25
100
AcDbLine
 10
109.8874529714
 20
443.1828908474
 30
0.0
 11
109.8874529714
 21
438.8760548222
 31
0.0
  0
SPLINE
  5
3BE
330
1F
100
AcDbEntity
  8
0
  6
Continuous
 62
     7
370
    25
100
AcDbSpline
210
0.0
220
0.0
230
1.0
 70
     8
 71
     3
 72
     9
 73
     5
 74
     0
 42
0.00000001
 43
0.00000001
 40
0.0
 40
0.0
 40
0.0
 40
0.0
 40
0.2575513451038012
 40
1.0
 40
1.0
 40
1.0
 40
1.0
 10
109.8874529713557
 20
438.8760548221584
 30
0.0
 10
109.7756041961448
 20
438.8086395993835
 30
0.0
 10
109.3413266148502
 20
438.5468851024396
 30
0.0
 10
108.8901384793882
 20
438.479501614647
 30
0.0
 10
108.5551544551093
 20
438.4294728347732
 30
0.0
  0
LINE
  5
3BF
330
1F
100
AcDbEntity
  8
0
  6
Continuous
 62
     7
370
    25
100
AcDbLine
 10
98.5060326085
 20
443.2483847302
 30
0.0
 11
98.3515669703
 21
443.1828908474
 31
0.0
  0
LINE
  5
3C0
330
1F
100
AcDbEntity
  8
0
  6
Continuous
 62
     7
370
    25
100
AcDbLine
 10
99.1195099708
 20
443.6294728348
 30
0.0
 11
99.9032399543
 21
443.6294728348
 31
0.0
  0
LINE
  5
3C1
330
1F
100
AcDbEntity
  8
0
  6
Continuous
 62
     7
370
    25
100
AcDbLine
 10
98.5060326085
 20
438.8105609393
 30
0.0
 11
98.3515669703
 21
438.8760548222
 31
0.0
  0
LINE
  5
3C2
330
1F
100
AcDbEntity
  8
0
  6
Continuous
 62
     7
370
    25
100
AcDbLine
 10
108.5551544551
 20
443.6294728348
 30
0.0
 11
109.1195099708
 21
443.6294728348
 31
0.0
  0
LINE
  5
3C3
330
1F
100
AcDbEntity
  8
0
  6
Continuous
 62
     7
370
    25
100
AcDbLine
 10
103.3066692724
 20
435.5828908474
 30
0.0
 11
105.9849788137
 21
436.0294728348
 31
0.0
  0
SPLINE
  5
3C4
330
1F
100
AcDbEntity
  8
0
  6
Continuous
 62
     7
370
    25
100
AcDbSpline
210
0.0
220
0.0
230
1.0
 70
     8
 71
     3
 72
     9
 73
     5
 74
     0
 42
0.00000001
 43
0.00000001
 40
0.0
 40
0.0
 40
0.0
 40
0.0
 40
0.0702005767034238
 40
1.0
 40
1.0
 40
1.0
 40
1.0
 10
105.9849788136879
 20
436.0294728347732
 30
0.0
 10
106.0484705972071
 20
436.0290267185056
 30
0.0
 10
106.9529045278208
 20
436.0226718381252
 30
0.0
 10
107.8392058742076
 20
435.7947823562297
 30
0.0
 10
108.663288354945
 20
435.582890847388
 30
0.0
  0
LINE
  5
3C5
330
1F
100
AcDbEntity
  8
0
  6
Continuous
 62
     7
370
    25
100
AcDbLine
 10
108.6632883549
 20
435.5828908474
 30
0.0
 11
108.6632883549
 21
431.2760548222
 31
0.0
  0
SPLINE
  5
3C6
330
1F
100
AcDbEntity
  8
0
  6
Continuous
 62
     7
370
    25
100
AcDbSpline
210
0.0
220
0.0
230
1.0
 70
     8
 71
     3
 72
     9
 73
     5
 74
     0
 42
0.00000001
 43
0.00000001
 40
0.0
 40
0.0
 40
0.0
 40
0.0
 40
0.0702005767034237
 40
1.0
 40
1.0
 40
1.0
 40
1.0
 10
105.9849788136879
 20
430.8294728347732
 30
0.0
 10
106.0484705972071
 20
430.8299189510407
 30
0.0
 10
106.9529045278204
 20
430.8362738314212
 30
0.0
 10
107.8392058742074
 20
431.0641633133167
 30
0.0
 10
108.663288354945
 20
431.2760548221584
 30
0.0
  0
LINE
  5
3C7
330
1F
100
AcDbEntity
  8
0
  6
Continuous
 62
     7
370
    25
100
AcDbLine
 10
103.3066692724
 20
431.2760548222
 30
0.0
 11
105.9849788137
 21
430.8294728348
 31
0.0
  0
LINE
  5
3C8
330
1F
100
AcDbEntity
  8
0
  6
Continuous
 62
     7
370
    25
100
AcDbLine
 10
103.3066692724
 20
435.5828908474
 30
0.0
 11
103.3066692724
 21
431.2760548222
 31
0.0
  0
SPLINE
  5
3C9
330
1F
100
AcDbEntity
  8
0
  6
Continuous
 62
     7
370
    25
100
AcDbSpline
210
0.0
220
0.0
230
1.0
 70
     8
 71
     3
 72
     9
 73
     5
 74
     0
 42
0.00000001
 43
0.00000001
 40
0.0
 40
0.0
 40
0.0
 40
0.0
 40
0.0702005767034166
 40
1.0
 40
1.0
 40
1.0
 40
1.0
 10
101.0347800803786
 20
436.0294728347731
 30
0.0
 10
101.0886372968577
 20
436.0290267185055
 30
0.0
 10
101.855827810215
 20
436.0226718381252
 30
0.0
 10
102.6076372701522
 20
435.7947823562297
 30
0.0
 10
103.3066692724308
 20
435.5828908473879
 30
0.0
  0
SPLINE
  5
3CA
330
1F
100
AcDbEntity
  8
0
  6
Continuous
 62
     7
370
    25
100
AcDbSpline
210
0.0
220
0.0
230
1.0
 70
     8
 71
     3
 72
     9
 73
     5
 74
     0
 42
0.00000001
 43
0.00000001
 40
0.0
 40
0.0
 40
0.0
 40
0.0
 40
0.0702005767034304
 40
1.0
 40
1.0
 40
1.0
 40
1.0
 10
101.0347800803786
 20
430.8294728347731
 30
0.0
 10
101.0886372968577
 20
430.8299189510407
 30
0.0
 10
101.8558278102149
 20
430.8362738314211
 30
0.0
 10
102.6076372701523
 20
431.0641633133166
 30
0.0
 10
103.3066692724308
 20
431.2760548221584
 30
0.0
  0
LINE
  5
3CB
330
1F
100
AcDbEntity
  8
0
  6
Continuous
 62
     7
370
    25
100
AcDbLine
 10
105.9849788137
 20
430.8294728348
 30
0.0
 11
101.0347800804
 21
430.8294728348
 31
0.0
  0
LINE
  5
3CC
330
1F
100
AcDbEntity
  8
0
  6
Continuous
 62
     7
370
    25
100
AcDbLine
 10
98.7628908883
 20
435.5828908474
 30
0.0
 11
101.0347800804
 21
436.0294728348
 31
0.0
  0
LINE
  5
3CD
330
1F
100
AcDbEntity
  8
0
  6
Continuous
 62
     7
370
    25
100
AcDbLine
 10
98.7628908883
 20
431.2760548222
 30
0.0
 11
101.0347800804
 21
430.8294728348
 31
0.0
  0
LINE
  5
3CE
330
1F
100
AcDbEntity
  8
0
  6
Continuous
 62
     7
370
    25
100
AcDbLine
 10
98.7628908883
 20
435.5828908474
 30
0.0
 11
98.7628908883
 21
431.2760548222
 31
0.0
  0
SPLINE
  5
3CF
330
1F
100
AcDbEntity
  8
0
  6
Continuous
 62
     7
370
    25
100
AcDbSpline
210
0.0
220
0.0
230
1.0
 70
     8
 71
     3
 72
     9
 73
     5
 74
     0
 42
0.00000001
 43
0.00000001
 40
0.0
 40
0.0
 40
0.0
 40
0.0
 40
0.268633605055563
 40
0.9999999999999999
 40
0.9999999999999999
 40
0.9999999999999999
 40
0.9999999999999999
 10
109.0697087041499
 20
436.0294728347732
 30
0.0
 10
109.0327537220182
 20
436.0228438821887
 30
0.0
 10
108.8951872320624
 20
435.9981673247524
 30
0.0
 10
108.7612474271808
 20
435.7583125611524
 30
0.0
 10
108.663288354945
 20
435.582890847388
 30
0.0
  0
SPLINE
  5
3D0
330
1F
100
AcDbEntity
  8
0
  6
Continuous
 62
     7
370
    25
100
AcDbSpline
210
0.0
220
0.0
230
1.0
 70
     8
 71
     3
 72
     9
 73
     5
 74
     0
 42
0.00000001
 43
0.00000001
 40
0.0
 40
0.0
 40
0.0
 40
0.0
 40
0.2686336050555624
 40
1.0
 40
1.0
 40
1.0
 40
1.0
 10
109.0697087041499
 20
430.8294728347732
 30
0.0
 10
109.0327537220182
 20
430.8361017873577
 30
0.0
 10
108.8951872320621
 20
430.860778344794
 30
0.0
 10
108.7612474271807
 20
431.100633108394
 30
0.0
 10
108.663288354945
 20
431.2760548221584
 30
0.0
  0
LINE
  5
3D1
330
1F
100
AcDbEntity
  8
0
  6
Continuous
 62
     7
370
    25
100
AcDbLine
 10
109.0697087041
 20
430.8294728348
 30
0.0
 11
105.9849788137
 21
430.8294728348
 31
0.0
  0
SPLINE
  5
3D2
330
1F
100
AcDbEntity
  8
0
  6
Continuous
 62
     7
370
    25
100
AcDbSpline
210
0.0
220
0.0
230
1.0
 70
     8
 71
     3
 72
     9
 73
     5
 74
     0
 42
0.00000001
 43
0.00000001
 40
0.0
 40
0.0
 40
0.0
 40
0.0
 40
0.037394470615956
 40
1.0
 40
1.0
 40
1.0
 40
1.0
 10
99.0704057350365
 20
435.9978034480593
 30
0.0
 10
99.06650520808397
 20
435.9966311208229
 30
0.0
 10
98.96219762227703
 20
435.9652808378253
 30
0.0
 10
98.86064551159224
 20
435.7704429120617
 30
0.0
 10
98.76289088832647
 20
435.5828908473879
 30
0.0
  0
SPLINE
  5
3D3
330
1F
100
AcDbEntity
  8
0
  6
Continuous
 62
     7
370
    25
100
AcDbSpline
210
0.0
220
0.0
230
1.0
 70
     8
 71
     3
 72
     9
 73
     5
 74
     0
 42
0.00000001
 43
0.00000001
 40
0.0
 40
0.0
 40
0.0
 40
0.0
 40
0.2686336050555605
 40
1.0
 40
1.0
 40
1.0
 40
1.0
 10
99.16931123753142
 20
430.8294728347731
 30
0.0
 10
99.13235625539978
 20
430.8361017873576
 30
0.0
 10
98.99478976544384
 20
430.8607783447939
 30
0.0
 10
98.86084996056222
 20
431.1006331083939
 30
0.0
 10
98.76289088832647
 20
431.2760548221584
 30
0.0
  0
LINE
  5
3D4
330
1F
100
AcDbEntity
  8
0
  6
Continuous
 62
     7
370
    25
100
AcDbLine
 10
101.0347800804
 20
430.8294728348
 30
0.0
 11
99.1197781756
 21
430.8294728348
 31
0.0
  0
SPLINE
  5
3D5
330
1F
100
AcDbEntity
  8
0
  6
Continuous
 62
     7
370
    25
100
AcDbSpline
210
0.0
220
0.0
230
1.0
 70
     8
 71
     3
 72
     9
 73
     5
 74
     0
 42
0.00000001
 43
0.00000001
 40
0.0
 40
0.0
 40
0.0
 40
0.0
 40
0.3399794610221134
 40
1.0
 40
1.0
 40
1.0
 40
1.0
 10
109.4761290533548
 20
435.582890847388
 30
0.0
 10
109.4420458636886
 20
435.6516815348034
 30
0.0
 10
109.3417951321777
 20
435.8540193089988
 30
0.0
 10
109.2376365057083
 20
435.9091113798638
 30
0.0
 10
109.1688896729268
 20
435.9454732781695
 30
0.0
  0
LINE
  5
3D6
330
1F
100
AcDbEntity
  8
0
  6
Continuous
 62
     7
370
    25
100
AcDbLine
 10
109.4761290534
 20
435.5828908474
 30
0.0
 11
109.4761290534
 21
431.2760548222
 31
0.0
  0
SPLINE
  5
3D7
330
1F
100
AcDbEntity
  8
0
  6
Continuous
 62
     7
370
    25
100
AcDbSpline
210
0.0
220
0.0
230
1.0
 70
     8
 71
     3
 72
     9
 73
     5
 74
     0
 42
0.00000001
 43
0.00000001
 40
0.0
 40
0.0
 40
0.0
 40
0.0
 40
0.2575513451038092
 40
1.0
 40
1.0
 40
1.0
 40
1.0
 10
109.4761290533549
 20
431.2760548221584
 30
0.0
 10
109.4420093589132
 20
431.2086395993836
 30
0.0
 10
109.3095321069392
 20
430.9468851024396
 30
0.0
 10
109.171896256313
 20
430.879501614647
 30
0.0
 10
109.0697087041499
 20
430.8294728347732
 30
0.0
  0
LINE
  5
3D8
330
1F
100
AcDbEntity
  8
0
  6
Continuous
 62
     7
370
    25
100
AcDbLine
 10
109.4761290534
 20
435.5828908474
 30
0.0
 11
107.2042398613
 21
436.0294728348
 31
0.0
  0
CIRCLE
  5
3D9
330
1F
100
AcDbEntity
  8
0
  6
Continuous
 62
     7
370
    25
100
AcDbCircle
 10
908.2343244809
 20
673.9794728348
 30
0.0
 40
2.525000000000023
  0
CIRCLE
  5
3DA
330
1F
100
AcDbEntity
  8
0
  6
Continuous
 62
     7
370
    25
100
AcDbCircle
 10
908.2343244809
 20
673.9794728348
 30
0.0
 40
2.100000000000012
  0
LINE
  5
3DB
330
1F
100
AcDbEntity
  8
0
  6
Continuous
 62
     7
370
    25
100
AcDbLine
 10
856.71950997
 20
445.5294728348
 30
0.0
 11
856.71950997
 21
446.7794728348
 31
0.0
  0
LINE
  5
3DC
330
1F
100
AcDbEntity
  8
0
  6
Continuous
 62
     7
370
    25
100
AcDbLine
 10
656.71950997
 20
446.7794728348
 30
0.0
 11
656.71950997
 21
445.5294728348
 31
0.0
  0
LINE
  5
3DD
330
1F
100
AcDbEntity
  8
0
  6
Continuous
 62
     7
370
    25
100
AcDbLine
 10
856.71950997
 20
438.0294728348
 30
0.0
 11
856.71950997
 21
435.9794728348
 31
0.0
  0
LINE
  5
3DE
330
1F
100
AcDbEntity
  8
0
  6
Continuous
 62
     7
370
    25
100
AcDbLine
 10
656.71950997
 20
435.9794728348
 30
0.0
 11
747.7195099708
 21
435.9794728348
 31
0.0
  0
LINE
  5
3DF
330
1F
100
AcDbEntity
  8
0
  6
Continuous
 62
     7
370
    25
100
AcDbLine
 10
811.5195099708
 20
435.9794728348
 30
0.0
 11
856.71950997
 21
435.9794728348
 31
0.0
  0
LINE
  5
3E0
330
1F
100
AcDbEntity
  8
0
  6
Continuous
 62
     7
370
    25
100
AcDbLine
 10
656.71950997
 20
435.9794728348
 30
0.0
 11
656.71950997
 21
438.0294728348
 31
0.0
  0
LINE
  5
3E1
330
1F
100
AcDbEntity
  8
0
  6
Continuous
 62
     7
370
    25
100
AcDbLine
 10
656.71950997
 20
438.0294728348
 30
0.0
 11
656.71950997
 21
445.5294728348
 31
0.0
  0
LINE
  5
3E2
330
1F
100
AcDbEntity
  8
0
  6
Continuous
 62
     7
370
    25
100
AcDbLine
 10
856.71950997
 20
445.5294728348
 30
0.0
 11
856.71950997
 21
438.0294728348
 31
0.0
  0
LINE
  5
3E3
330
1F
100
AcDbEntity
  8
0
  6
Continuous
 62
     7
370
    25
100
AcDbLine
 10
200.6195099708
 20
347.5794728348
 30
0.0
 11
174.1195099708
 21
347.5794728348
 31
0.0
  0
LINE
  5
3E4
330
1F
100
AcDbEntity
  8
0
  6
Continuous
 62
     7
370
    25
100
AcDbLine
 10
227.1195099708
 20
347.5794728348
 30
0.0
 11
200.6195099708
 21
347.5794728348
 31
0.0
  0
LINE
  5
3E5
330
1F
100
AcDbEntity
  8
0
  6
Continuous
 62
     7
370
    25
100
AcDbLine
 10
200.6195099708
 20
353.5794728348
 30
0.0
 11
172.1195099708
 21
353.5794728348
 31
0.0
  0
LINE
  5
3E6
330
1F
100
AcDbEntity
  8
0
  6
Continuous
 62
     7
370
    25
100
AcDbLine
 10
229.1195099708
 20
353.5794728348
 30
0.0
 11
200.6195099708
 21
353.5794728348
 31
0.0
  0
LINE
  5
3E7
330
1F
100
AcDbEntity
  8
0
  6
Continuous
 62
     7
370
    25
100
AcDbLine
 10
779.6195099708
 20
347.5794728348
 30
0.0
 11
753.1195099708
 21
347.5794728348
 31
0.0
  0
LINE
  5
3E8
330
1F
100
AcDbEntity
  8
0
  6
Continuous
 62
     7
370
    25
100
AcDbLine
 10
806.1195099708
 20
347.5794728348
 30
0.0
 11
779.6195099708
 21
347.5794728348
 31
0.0
  0
LINE
  5
3E9
330
1F
100
AcDbEntity
  8
0
  6
Continuous
 62
     7
370
    25
100
AcDbLine
 10
779.6195099708
 20
353.5794728348
 30
0.0
 11
751.1195099708
 21
353.5794728348
 31
0.0
  0
LINE
  5
3EA
330
1F
100
AcDbEntity
  8
0
  6
Continuous
 62
     7
370
    25
100
AcDbLine
 10
808.1195099708
 20
353.5794728348
 30
0.0
 11
779.6195099708
 21
353.5794728348
 31
0.0
  0
LINE
  5
3EB
330
1F
100
AcDbEntity
  8
0
  6
Continuous
 62
     7
370
    25
100
AcDbLine
 10
824.6195099708
 20
445.5794728348
 30
0.0
 11
824.6195099708
 21
446.7794728348
 31
0.0
  0
LINE
  5
3EC
330
1F
100
AcDbEntity
  8
0
  6
Continuous
 62
     7
370
    25
100
AcDbLine
 10
734.6195099708
 20
445.5794728348
 30
0.0
 11
824.6195099708
 21
445.5794728348
 31
0.0
  0
LINE
  5
3ED
330
1F
100
AcDbEntity
  8
0
  6
Continuous
 62
     7
370
    25
100
AcDbLine
 10
734.6195099708
 20
445.5794728348
 30
0.0
 11
734.6195099708
 21
446.7794728348
 31
0.0
  0
LINE
  5
3EE
330
1F
100
AcDbEntity
  8
0
  6
Continuous
 62
     7
370
    25
100
AcDbLine
 10
779.6195099708
 20
382.5794728348
 30
0.0
 11
748.6598597505
 21
382.5794728348
 31
0.0
  0
LINE
  5
3EF
330
1F
100
AcDbEntity
  8
0
  6
Continuous
 62
     7
370
    25
100
AcDbLine
 10
810.5791601912
 20
382.5794728348
 30
0.0
 11
779.6195099708
 21
382.5794728348
 31
0.0
  0
LINE
  5
3F0
330
1F
100
AcDbEntity
  8
0
  6
Continuous
 62
     7
370
    25
100
AcDbLine
 10
155.6195099708
 20
445.5794728348
 30
0.0
 11
155.6195099708
 21
446.7794728348
 31
0.0
  0
LINE
  5
3F1
330
1F
100
AcDbEntity
  8
0
  6
Continuous
 62
     7
370
    25
100
AcDbLine
 10
155.6195099708
 20
445.5794728348
 30
0.0
 11
245.6195099708
 21
445.5794728348
 31
0.0
  0
LINE
  5
3F2
330
1F
100
AcDbEntity
  8
0
  6
Continuous
 62
     7
370
    25
100
AcDbLine
 10
245.6195099708
 20
445.5794728348
 30
0.0
 11
245.6195099708
 21
446.7794728348
 31
0.0
  0
LINE
  5
3F3
330
1F
100
AcDbEntity
  8
0
  6
Continuous
 62
     7
370
    25
100
AcDbLine
 10
200.6195099708
 20
382.5794728348
 30
0.0
 11
169.6598597505
 21
382.5794728348
 31
0.0
  0
LINE
  5
3F4
330
1F
100
AcDbEntity
  8
0
  6
Continuous
 62
     7
370
    25
100
AcDbLine
 10
231.5791601912
 20
382.5794728348
 30
0.0
 11
200.6195099708
 21
382.5794728348
 31
0.0
  0
LINE
  5
3F5
330
1F
100
AcDbEntity
  8
0
  6
Continuous
 62
     8
370
    25
100
AcDbLine
 10
656.71950997
 20
443.4294728348
 30
0.0
 11
637.8695099708
 21
443.4294728348
 31
0.0
  0
LINE
  5
3F6
330
1F
100
AcDbEntity
  8
0
  6
Continuous
 62
     8
370
    25
100
AcDbLine
 10
637.8695099708
 20
438.9294728348
 30
0.0
 11
656.71950997
 21
438.9294728348
 31
0.0
  0
LINE
  5
3F7
330
1F
100
AcDbEntity
  8
0
  6
Continuous
 62
     8
370
    25
100
AcDbLine
 10
107.6343244809
 20
723.4794728348
 30
0.0
 11
88.6343244809
 21
723.4794728348
 31
0.0
  0
LINE
  5
3F8
330
1F
100
AcDbEntity
  8
0
  6
Continuous
 62
     8
370
    25
100
AcDbLine
 10
974.2447182131
 20
563.5348263176
 30
0.0
 11
972.7889344194
 21
566.6567647382
 31
0.0
  0
LINE
  5
3F9
330
1F
100
AcDbEntity
  8
0
  6
Continuous
 62
     8
370
    25
100
AcDbLine
 10
946.1888703723
 20
541.6984310876
 30
0.0
 11
937.4869691943
 21
560.3597183854
 31
0.0
  0
LINE
  5
3FA
330
1F
100
AcDbEntity
  8
0
  6
Continuous
 62
     8
370
    25
100
AcDbLine
 10
931.4786349986
 20
573.2446326489
 30
0.0
 11
922.7767338206
 21
591.9059199467
 31
0.0
  0
LINE
  5
3FB
330
1F
100
AcDbEntity
  8
0
  6
Continuous
 62
     8
370
    25
100
AcDbLine
 10
928.6626801925
 20
588.2529238609
 30
0.0
 11
947.1739264192
 21
548.5554282204
 31
0.0
  0
LINE
  5
3FC
330
1F
100
AcDbEntity
  8
0
  6
Continuous
 62
     8
370
    25
100
AcDbLine
 10
917.8789407017
 20
634.3743716273
 30
0.0
 11
917.9556539668
 21
634.3385996444
 31
0.0
  0
LINE
  5
3FD
330
1F
100
AcDbEntity
  8
0
  6
Continuous
 62
     8
370
    25
100
AcDbLine
 10
114.3682848638
 20
420.5794728348
 30
0.0
 11
115.9695099708
 21
420.5794728348
 31
0.0
  0
LINE
  5
3FE
330
1F
100
AcDbEntity
  8
0
  6
Continuous
 62
     8
370
    25
100
AcDbLine
 10
86.2695099708
 20
420.5794728348
 30
0.0
 11
114.3682848638
 21
420.5794728348
 31
0.0
  0
LINE
  5
3FF
330
1F
100
AcDbEntity
  8
0
  6
Continuous
 62
     8
370
    25
100
AcDbLine
 10
937.3790187252
 20
646.0051765579
 30
0.0
 11
938.3426532851
 21
643.9386555754
 31
0.0
  0
SPLINE
  5
400
330
1F
100
AcDbEntity
  8
0
  6
Continuous
 62
     8
370
    25
100
AcDbSpline
210
0.0
220
0.0
230
1.0
 70
     8
 71
     3
 72
    11
 73
     7
 74
     0
 42
0.00000001
 43
0.00000001
 40
0.0
 40
0.0
 40
0.0
 40
0.0
 40
0.2794911826092091
 40
0.6093540394906706
 40
0.9230042731450402
 40
1.0
 40
1.0
 40
1.0
 40
1.0
 10
100.9878933304986
 20
436.9794728347731
 30
0.0
 10
100.9885993967594
 20
436.9830919739228
 30
0.0
 10
100.9901387810225
 20
436.9909825164427
 30
0.0
 10
100.9922526956798
 20
437.0619416050546
 30
0.0
 10
100.9937360701088
 20
437.1424153750472
 30
0.0
 10
100.9941886707722
 20
437.2032942383985
 30
0.0
 10
100.9942778776771
 20
437.2152933701128
 30
0.0
  0
LINE
  5
401
330
1F
100
AcDbEntity
  8
0
  6
Continuous
 62
     8
370
    25
100
AcDbLine
 10
100.990434872
 20
437.0150318147
 30
0.0
 11
100.9878933305
 21
436.9794728348
 31
0.0
  0
LINE
  5
402
330
1F
100
AcDbEntity
  8
0
  6
Continuous
 62
     8
370
    25
100
AcDbLine
 10
95.8896401654
 20
436.2794728348
 30
0.0
 11
100.9857465405
 21
436.2794728348
 31
0.0
  0
LINE
  5
403
330
1F
100
AcDbEntity
  8
0
  6
Continuous
 62
     8
370
    25
100
AcDbLine
 10
100.9857465405
 20
436.9794728348
 30
0.0
 11
95.8896401654
 21
436.9794728348
 31
0.0
  0
LINE
  5
404
330
1F
100
AcDbEntity
  8
0
  6
Continuous
 62
     8
370
    25
100
AcDbLine
 10
107.4850761643
 20
436.2794728348
 30
0.0
 11
112.8195099708
 21
436.2794728348
 31
0.0
  0
LINE
  5
405
330
1F
100
AcDbEntity
  8
0
  6
Continuous
 62
     8
370
    25
100
AcDbLine
 10
112.8195099708
 20
436.9794728348
 30
0.0
 11
107.4850761643
 21
436.9794728348
 31
0.0
  0
LINE
  5
406
330
1F
100
AcDbEntity
  8
0
  6
Continuous
 62
     8
370
    25
100
AcDbLine
 10
96.3374099957
 20
437.4794728348
 30
0.0
 11
100.9525547102
 21
437.4794728348
 31
0.0
  0
LINE
  5
407
330
1F
100
AcDbEntity
  8
0
  6
Continuous
 62
     8
370
    25
100
AcDbLine
 10
107.5450905665
 20
437.4794728348
 30
0.0
 11
112.4252685398
 21
437.4794728348
 31
0.0
  0
LINE
  5
408
330
1F
100
AcDbEntity
  8
0
  6
Continuous
 62
     8
370
    25
100
AcDbLine
 10
112.4252685398
 20
438.1794728348
 30
0.0
 11
107.5054238995
 21
438.1794728348
 31
0.0
  0
LINE
  5
409
330
1F
100
AcDbEntity
  8
0
  6
Continuous
 62
     8
370
    25
100
AcDbLine
 10
100.9955101955
 20
438.1794728348
 30
0.0
 11
96.3374099957
 21
438.1794728348
 31
0.0
  0
LINE
  5
40A
330
1F
100
AcDbEntity
  8
0
  6
Continuous
 62
     8
370
    25
100
AcDbLine
 10
94.6735523366
 20
436.9794728348
 30
0.0
 11
93.9195099708
 21
436.9794728348
 31
0.0
  0
LINE
  5
40B
330
1F
100
AcDbEntity
  8
0
  6
Continuous
 62
     8
370
    25
100
AcDbLine
 10
95.6597808805
 20
436.9794728348
 30
0.0
 11
95.8896371413
 21
436.9794728348
 31
0.0
  0
LINE
  5
40C
330
1F
100
AcDbEntity
  8
0
  6
Continuous
 62
     8
370
    25
100
AcDbLine
 10
95.6597808805
 20
431.8794728348
 30
0.0
 11
95.8896401654
 21
431.8794728348
 31
0.0
  0
LINE
  5
40D
330
1F
100
AcDbEntity
  8
0
  6
Continuous
 62
     8
370
    25
100
AcDbLine
 10
93.9195099708
 20
431.8794728348
 30
0.0
 11
94.6735523366
 21
431.8794728348
 31
0.0
  0
LINE
  5
40E
330
1F
100
AcDbEntity
  8
0
  6
Continuous
 62
     8
370
    25
100
AcDbLine
 10
112.8327580022
 20
436.9794728348
 30
0.0
 11
113.102897655
 21
436.9794728348
 31
0.0
  0
LINE
  5
40F
330
1F
100
AcDbEntity
  8
0
  6
Continuous
 62
     8
370
    25
100
AcDbLine
 10
112.8327569398
 20
431.8794728348
 30
0.0
 11
113.102897655
 21
431.8794728348
 31
0.0
  0
LINE
  5
410
330
1F
100
AcDbEntity
  8
0
  6
Continuous
 62
     8
370
    25
100
AcDbLine
 10
114.3195099708
 20
436.9794728348
 30
0.0
 11
114.0609899235
 21
436.9794728348
 31
0.0
  0
LINE
  5
411
330
1F
100
AcDbEntity
  8
0
  6
Continuous
 62
     8
370
    25
100
AcDbLine
 10
112.3701941059
 20
431.8794728348
 30
0.0
 11
112.8327569398
 21
431.8794728348
 31
0.0
  0
LINE
  5
412
330
1F
100
AcDbEntity
  8
0
  6
Continuous
 62
     8
370
    25
100
AcDbLine
 10
114.0609899235
 20
431.8794728348
 30
0.0
 11
114.3195099708
 21
431.8794728348
 31
0.0
  0
LINE
  5
413
330
1F
100
AcDbEntity
  8
0
  6
Continuous
 62
     8
370
    25
100
AcDbLine
 10
112.3701941059
 20
436.0294728348
 30
0.0
 11
112.3701941059
 21
431.8794728348
 31
0.0
  0
LINE
  5
414
330
1F
100
AcDbEntity
  8
0
  6
Continuous
 62
     8
370
    25
100
AcDbLine
 10
112.3493797763
 20
431.8794728348
 30
0.0
 11
112.3701941059
 21
431.8794728348
 31
0.0
  0
LINE
  5
415
330
1F
100
AcDbEntity
  8
0
  6
Continuous
 62
     8
370
    25
100
AcDbLine
 10
656.71950997
 20
445.5294728348
 30
0.0
 11
746.6035672582
 21
445.5294728348
 31
0.0
  0
LINE
  5
416
330
1F
100
AcDbEntity
  8
0
  6
Continuous
 62
     8
370
    25
100
AcDbLine
 10
812.6354526834
 20
445.5294728348
 30
0.0
 11
856.71950997
 21
445.5294728348
 31
0.0
  0
LINE
  5
417
330
1F
100
AcDbEntity
  8
0
  6
Continuous
 62
     8
370
    25
100
AcDbLine
 10
656.71950997
 20
438.0294728348
 30
0.0
 11
747.7195099708
 21
438.0294728348
 31
0.0
  0
LINE
  5
418
330
1F
100
AcDbEntity
  8
0
  6
Continuous
 62
     8
370
    25
100
AcDbLine
 10
811.5195099708
 20
438.0294728348
 30
0.0
 11
856.71950997
 21
438.0294728348
 31
0.0
  0
LINE
  5
419
330
1F
100
AcDbEntity
  8
0
  6
Continuous
 62
     8
370
    25
100
AcDbLine
 10
200.6195099708
 20
349.5794728348
 30
0.0
 11
172.1195099708
 21
349.5794728348
 31
0.0
  0
LINE
  5
41A
330
1F
100
AcDbEntity
  8
0
  6
Continuous
 62
     8
370
    25
100
AcDbLine
 10
229.1195099708
 20
349.5794728348
 30
0.0
 11
200.6195099708
 21
349.5794728348
 31
0.0
  0
LINE
  5
41B
330
1F
100
AcDbEntity
  8
0
  6
Continuous
 62
     8
370
    25
100
AcDbLine
 10
779.6195099708
 20
349.5794728348
 30
0.0
 11
751.1195099708
 21
349.5794728348
 31
0.0
  0
LINE
  5
41C
330
1F
100
AcDbEntity
  8
0
  6
Continuous
 62
     8
370
    25
100
AcDbLine
 10
808.1195099708
 20
349.5794728348
 30
0.0
 11
779.6195099708
 21
349.5794728348
 31
0.0
  0
LINE
  5
41D
330
1F
100
AcDbEntity
  8
0
  6
Continuous
 62
     8
370
    25
100
AcDbLine
 10
779.6195099708
 20
444.0794728348
 30
0.0
 11
747.7195099708
 21
444.0794728348
 31
0.0
  0
LINE
  5
41E
330
1F
100
AcDbEntity
  8
0
  6
Continuous
 62
     8
370
    25
100
AcDbLine
 10
811.5195099708
 20
444.0794728348
 30
0.0
 11
779.6195099708
 21
444.0794728348
 31
0.0
  0
LINE
  5
41F
330
1F
100
AcDbEntity
  8
0
  6
Continuous
 62
     8
370
    25
100
AcDbLine
 10
779.6195099708
 20
387.839575556
 30
0.0
 11
747.7834231978
 21
387.839575556
 31
0.0
  0
LINE
  5
420
330
1F
100
AcDbEntity
  8
0
  6
Continuous
 62
     8
370
    25
100
AcDbLine
 10
811.4555967438
 20
387.839575556
 30
0.0
 11
779.6195099708
 21
387.839575556
 31
0.0
  0
LINE
  5
421
330
1F
100
AcDbEntity
  8
0
  6
Continuous
 62
     8
370
    25
100
AcDbLine
 10
779.6195099708
 20
388.6120387804
 30
0.0
 11
747.7195099708
 21
388.6120387804
 31
0.0
  0
LINE
  5
422
330
1F
100
AcDbEntity
  8
0
  6
Continuous
 62
     8
370
    25
100
AcDbLine
 10
811.5195099708
 20
388.6120387804
 30
0.0
 11
779.6195099708
 21
388.6120387804
 31
0.0
  0
LINE
  5
423
330
1F
100
AcDbEntity
  8
0
  6
Continuous
 62
     8
370
    25
100
AcDbLine
 10
200.6195099708
 20
444.0794728348
 30
0.0
 11
168.7195099708
 21
444.0794728348
 31
0.0
  0
LINE
  5
424
330
1F
100
AcDbEntity
  8
0
  6
Continuous
 62
     8
370
    25
100
AcDbLine
 10
232.5195099708
 20
444.0794728348
 30
0.0
 11
200.6195099708
 21
444.0794728348
 31
0.0
  0
LINE
  5
425
330
1F
100
AcDbEntity
  8
0
  6
Continuous
 62
     8
370
    25
100
AcDbLine
 10
200.6195099708
 20
387.839575556
 30
0.0
 11
168.7834231978
 21
387.839575556
 31
0.0
  0
LINE
  5
426
330
1F
100
AcDbEntity
  8
0
  6
Continuous
 62
     8
370
    25
100
AcDbLine
 10
232.4555967438
 20
387.839575556
 30
0.0
 11
200.6195099708
 21
387.839575556
 31
0.0
  0
LINE
  5
427
330
1F
100
AcDbEntity
  8
0
  6
Continuous
 62
     8
370
    25
100
AcDbLine
 10
200.6195099708
 20
388.6120387804
 30
0.0
 11
168.7195099708
 21
388.6120387804
 31
0.0
  0
LINE
  5
428
330
1F
100
AcDbEntity
  8
0
  6
Continuous
 62
     8
370
    25
100
AcDbLine
 10
232.5195099708
 20
388.6120387804
 30
0.0
 11
200.6195099708
 21
388.6120387804
 31
0.0
  0
ENDSEC
  0
SECTION
  2
OBJECTS
  0
DICTIONARY
  5
C
330
0
100
AcDbDictionary
281
     1
  3
ACAD_GROUP
350
D
  3
ACAD_LAYOUT
350
1A
  3
ACAD_MLINESTYLE
350
17
  3
ACAD_PLOTSETTINGS
350
19
  3
ACAD_PLOTSTYLENAME
350
E
  3
ACAD_SCALELIST
350
47
  3
DWGPROPS
350
429
  0
DICTIONARY
  5
D
102
{ACAD_REACTORS
330
C
102
}
330
C
100
AcDbDictionary
281
     1
  0
DICTIONARY
  5
1A
102
{ACAD_REACTORS
330
C
102
}
330
C
100
AcDbDictionary
281
     1
  3
Layout1
350
1E
  3
Layout2
350
26
  3
Model
350
22
  0
DICTIONARY
  5
17
102
{ACAD_REACTORS
330
C
102
}
330
C
100
AcDbDictionary
281
     1
  3
Standard
350
18
  0
DICTIONARY
  5
19
102
{ACAD_REACTORS
330
C
102
}
330
C
100
AcDbDictionary
281
     1
  0
ACDBDICTIONARYWDFLT
  5
E
102
{ACAD_REACTORS
330
C
102
}
330
C
100
AcDbDictionary
281
     1
  3
Normal
350
F
100
AcDbDictionaryWithDefault
340
F
  0
DICTIONARY
  5
47
102
{ACAD_REACTORS
330
C
102
}
330
C
100
AcDbDictionary
281
     1
  3
A0
350
48
  3
A1
350
49
  3
A2
350
4A
  3
A3
350
4B
  3
A4
350
4C
  3
A5
350
4D
  3
A6
350
4E
  3
A7
350
4F
  3
A8
350
50
  3
A9
350
51
  3
B0
350
52
  3
B1
350
53
  3
B2
350
54
  3
B3
350
55
  3
B4
350
56
  3
B5
350
57
  3
B6
350
58
  3
B7
350
59
  3
B8
350
5A
  3
B9
350
5B
  3
C0
350
5C
  3
C1
350
5D
  3
C2
350
5E
  3
C3
350
5F
  3
C4
350
60
  3
C5
350
61
  3
C6
350
62
  3
C7
350
63
  3
C8
350
64
  3
C9
350
65
  3
D0
350
66
  3
D1
350
67
  3
D2
350
68
  0
XRECORD
  5
429
102
{ACAD_REACTORS
330
C
102
}
330
C
100
AcDbXrecord
280
     1
  1
DWGPROPS COOKIE
  2

  3

  4

  6

  7

  8
rnd15
  9

300
=
301
=
302
=
303
=
304
=
305
=
306
=
307
=
308
=
309
=
 40
0.0
 41
2459954.630052164
 42
2459954.630052905
  1

 90
        0
  0
LAYOUT
  5
1E
102
{ACAD_REACTORS
330
1A
102
}
330
1A
100
AcDbPlotSettings
  1

  2
none_device
  4

  6

 40
0.0
 41
0.0
 42
0.0
 43
0.0
 44
0.0
 45
0.0
 46
0.0
 47
0.0
 48
0.0
 49
0.0
140
0.0
141
0.0
142
1.0
143
1.0
 70
   688
 72
     1
 73
     0
 74
     5
  7

 75
    16
147
1.0
148
0.0
149
0.0
100
AcDbLayout
  1
Layout1
 70
     1
 71
     1
 10
0.0
 20
0.0
 11
420.0
 21
297.0
 12
0.0
 22
0.0
 32
0.0
 14
1.0000000000E+20
 24
1.0000000000E+20
 34
1.0000000000E+20
 15
-1.0000000000E+20
 25
-1.0000000000E+20
 35
-1.0000000000E+20
146
0.0
 13
0.0
 23
0.0
 33
0.0
 16
1.0
 26
0.0
 36
0.0
 17
0.0
 27
1.0
 37
0.0
 76
     0
330
1B
  0
LAYOUT
  5
26
102
{ACAD_REACTORS
330
1A
102
}
330
1A
100
AcDbPlotSettings
  1

  2
none_device
  4

  6

 40
0.0
 41
0.0
 42
0.0
 43
0.0
 44
0.0
 45
0.0
 46
0.0
 47
0.0
 48
0.0
 49
0.0
140
0.0
141
0.0
142
1.0
143
1.0
 70
   688
 72
     1
 73
     0
 74
     5
  7

 75
    16
147
1.0
148
0.0
149
0.0
100
AcDbLayout
  1
Layout2
 70
     1
 71
     2
 10
0.0
 20
0.0
 11
0.0
 21
0.0
 12
0.0
 22
0.0
 32
0.0
 14
0.0
 24
0.0
 34
0.0
 15
0.0
 25
0.0
 35
0.0
146
0.0
 13
0.0
 23
0.0
 33
0.0
 16
1.0
 26
0.0
 36
0.0
 17
0.0
 27
1.0
 37
0.0
 76
     0
330
23
  0
LAYOUT
  5
22
102
{ACAD_REACTORS
330
1A
102
}
330
1A
100
AcDbPlotSettings
  1

  2
none_device
  4
Letter_(8.50_x_11.00_Inches)
  6

 40
6.35
 41
6.35
 42
6.35000508
 43
6.35000508
 44
215.9
 45
279.4
 46
0.0
 47
0.0
 48
0.0
 49
0.0
140
0.0
141
0.0
142
1.0
143
1.0
 70
  1712
 72
     1
 73
     0
 74
     0
  7

 75
     0
147
1.0
148
0.0
149
0.0
100
AcDbLayout
  1
Model
 70
     1
 71
     0
 10
0.0
 20
0.0
 11
1000.0
 21
1000.0
 12
0.0
 22
0.0
 32
0.0
 14
0.0
 24
0.0
 34
0.0
 15
1000.0
 25
1000.0
 35
0.0
146
0.0
 13
0.0
 23
0.0
 33
0.0
 16
1.0
 26
0.0
 36
0.0
 17
0.0
 27
1.0
 37
0.0
 76
     0
330
1F
331
29
  0
MLINESTYLE
  5
18
102
{ACAD_REACTORS
330
17
102
}
330
17
100
AcDbMlineStyle
  2
Standard
 70
     0
  3

 62
   256
 51
90.0
 52
90.0
 71
     2
 49
0.5
 62
   256
  6
BYLAYER
 49
-0.5
 62
   256
  6
BYLAYER
  0
ACDBPLACEHOLDER
  5
F
102
{ACAD_REACTORS
330
E
102
}
330
E
  0
SCALE
  5
48
102
{ACAD_REACTORS
330
47
102
}
330
47
100
AcDbScale
 70
     0
300
1:1
140
1.0
141
1.0
290
     1
  0
SCALE
  5
49
102
{ACAD_REACTORS
330
47
102
}
330
47
100
AcDbScale
 70
     0
300
1:2
140
1.0
141
2.0
290
     0
  0
SCALE
  5
4A
102
{ACAD_REACTORS
330
47
102
}
330
47
100
AcDbScale
 70
     0
300
1:4
140
1.0
141
4.0
290
     0
  0
SCALE
  5
4B
102
{ACAD_REACTORS
330
47
102
}
330
47
100
AcDbScale
 70
     0
300
1:5
140
1.0
141
5.0
290
     0
  0
SCALE
  5
4C
102
{ACAD_REACTORS
330
47
102
}
330
47
100
AcDbScale
 70
     0
300
1:8
140
1.0
141
8.0
290
     0
  0
SCALE
  5
4D
102
{ACAD_REACTORS
330
47
102
}
330
47
100
AcDbScale
 70
     0
300
1:10
140
1.0
141
10.0
290
     0
  0
SCALE
  5
4E
102
{ACAD_REACTORS
330
47
102
}
330
47
100
AcDbScale
 70
     0
300
1:16
140
1.0
141
16.0
290
     0
  0
SCALE
  5
4F
102
{ACAD_REACTORS
330
47
102
}
330
47
100
AcDbScale
 70
     0
300
1:20
140
1.0
141
20.0
290
     0
  0
SCALE
  5
50
102
{ACAD_REACTORS
330
47
102
}
330
47
100
AcDbScale
 70
     0
300
1:30
140
1.0
141
30.0
290
     0
  0
SCALE
  5
51
102
{ACAD_REACTORS
330
47
102
}
330
47
100
AcDbScale
 70
     0
300
1:40
140
1.0
141
40.0
290
     0
  0
SCALE
  5
52
102
{ACAD_REACTORS
330
47
102
}
330
47
100
AcDbScale
 70
     0
300
1:50
140
1.0
141
50.0
290
     0
  0
SCALE
  5
53
102
{ACAD_REACTORS
330
47
102
}
330
47
100
AcDbScale
 70
     0
300
1:100
140
1.0
141
100.0
290
     0
  0
SCALE
  5
54
102
{ACAD_REACTORS
330
47
102
}
330
47
100
AcDbScale
 70
     0
300
2:1
140
2.0
141
1.0
290
     0
  0
SCALE
  5
55
102
{ACAD_REACTORS
330
47
102
}
330
47
100
AcDbScale
 70
     0
300
4:1
140
4.0
141
1.0
290
     0
  0
SCALE
  5
56
102
{ACAD_REACTORS
330
47
102
}
330
47
100
AcDbScale
 70
     0
300
8:1
140
8.0
141
1.0
290
     0
  0
SCALE
  5
57
102
{ACAD_REACTORS
330
47
102
}
330
47
100
AcDbScale
 70
     0
300
10:1
140
10.0
141
1.0
290
     0
  0
SCALE
  5
58
102
{ACAD_REACTORS
330
47
102
}
330
47
100
AcDbScale
 70
     0
300
100:1
140
100.0
141
1.0
290
     0
  0
SCALE
  5
59
102
{ACAD_REACTORS
330
47
102
}
330
47
100
AcDbScale
 70
     0
300
1/128" = 1'-0"
140
0.0078125
141
12.0
290
     0
  0
SCALE
  5
5A
102
{ACAD_REACTORS
330
47
102
}
330
47
100
AcDbScale
 70
     0
300
1/64" = 1'-0"
140
0.015625
141
12.0
290
     0
  0
SCALE
  5
5B
102
{ACAD_REACTORS
330
47
102
}
330
47
100
AcDbScale
 70
     0
300
1/32" = 1'-0"
140
0.03125
141
12.0
290
     0
  0
SCALE
  5
5C
102
{ACAD_REACTORS
330
47
102
}
330
47
100
AcDbScale
 70
     0
300
1/16" = 1'-0"
140
0.0625
141
12.0
290
     0
  0
SCALE
  5
5D
102
{ACAD_REACTORS
330
47
102
}
330
47
100
AcDbScale
 70
     0
300
3/32" = 1'-0"
140
0.09375
141
12.0
290
     0
  0
SCALE
  5
5E
102
{ACAD_REACTORS
330
47
102
}
330
47
100
AcDbScale
 70
     0
300
1/8" = 1'-0"
140
0.125
141
12.0
290
     0
  0
SCALE
  5
5F
102
{ACAD_REACTORS
330
47
102
}
330
47
100
AcDbScale
 70
     0
300
3/16" = 1'-0"
140
0.1875
141
12.0
290
     0
  0
SCALE
  5
60
102
{ACAD_REACTORS
330
47
102
}
330
47
100
AcDbScale
 70
     0
300
1/4" = 1'-0"
140
0.25
141
12.0
290
     0
  0
SCALE
  5
61
102
{ACAD_REACTORS
330
47
102
}
330
47
100
AcDbScale
 70
     0
300
3/8" = 1'-0"
140
0.375
141
12.0
290
     0
  0
SCALE
  5
62
102
{ACAD_REACTORS
330
47
102
}
330
47
100
AcDbScale
 70
     0
300
1/2" = 1'-0"
140
0.5
141
12.0
290
     0
  0
SCALE
  5
63
102
{ACAD_REACTORS
330
47
102
}
330
47
100
AcDbScale
 70
     0
300
3/4" = 1'-0"
140
0.75
141
12.0
290
     0
  0
SCALE
  5
64
102
{ACAD_REACTORS
330
47
102
}
330
47
100
AcDbScale
 70
     0
300
1" = 1'-0"
140
1.0
141
12.0
290
     0
  0
SCALE
  5
65
102
{ACAD_REACTORS
330
47
102
}
330
47
100
AcDbScale
 70
     0
300
1-1/2" = 1'-0"
140
1.5
141
12.0
290
     0
  0
SCALE
  5
66
102
{ACAD_REACTORS
330
47
102
}
330
47
100
AcDbScale
 70
     0
300
3" = 1'-0"
140
3.0
141
12.0
290
     0
  0
SCALE
  5
67
102
{ACAD_REACTORS
330
47
102
}
330
47
100
AcDbScale
 70
     0
300
6" = 1'-0"
140
6.0
141
12.0
290
     0
  0
SCALE
  5
68
102
{ACAD_REACTORS
330
47
102
}
330
47
100
AcDbScale
 70
     0
300
1'-0" = 1'-0"
140
12.0
141
12.0
290
     0
  0
ENDSEC
  0
EOF
