  0
SECTION
  2
HEADER
  9
$ACADVER
  1
AC1015
  9
$ACADMAINTVER
 70
     6
  9
$DWGCODEPAGE
  3
ANSI_1252
  9
$INSBASE
 10
0.0
 20
0.0
 30
0.0
  9
$EXTMIN
 10
0.0
 20
0.0
 30
0.0
  9
$EXTMAX
 10
431.8
 20
279.4
 30
0.0
  9
$LIMMIN
 10
0.0
 20
0.0
  9
$LIMMAX
 10
431.8
 20
279.4
  9
$ORTHOMODE
 70
     0
  9
$REGENMODE
 70
     1
  9
$FILLMODE
 70
     1
  9
$QTEXTMODE
 70
     0
  9
$MIRRTEXT
 70
     1
  9
$LTSCALE
 40
1.0
  9
$ATTMODE
 70
     1
  9
$TEXTSIZE
 40
3.5
  9
$TRACEWID
 40
1.0
  9
$TEXTSTYLE
  7
Standard
  9
$CLAYER
  8
0
  9
$CELTYPE
  6
ByLayer
  9
$CECOLOR
 62
   256
  9
$CELTSCALE
 40
1.0
  9
$DISPSILH
 70
     0
  9
$DIMSCALE
 40
1.0
  9
$DIMASZ
 40
3.302
  9
$DIMEXO
 40
1.0
  9
$DIMDLI
 40
3.75
  9
$DIMRND
 40
0.0
  9
$DIMDLE
 40
0.0
  9
$DIMEXE
 40
1.0
  9
$DIMTP
 40
0.0
  9
$DIMTM
 40
0.0
  9
$DIMTXT
 40
3.5
  9
$DIMCEN
 40
2.5
  9
$DIMTSZ
 40
0.0
  9
$DIMTOL
 70
     0
  9
$DIMLIM
 70
     0
  9
$DIMTIH
 70
     1
  9
$DIMTOH
 70
     1
  9
$DIMSE1
 70
     0
  9
$DIMSE2
 70
     0
  9
$DIMTAD
 70
     1
  9
$DIMZIN
 70
     0
  9
$DIMBLK
  1

  9
$DIMASO
 70
     1
  9
$DIMSHO
 70
     1
  9
$DIMPOST
  1

  9
$DIMAPOST
  1

  9
$DIMALT
 70
     0
  9
$DIMALTD
 70
     3
  9
$DIMALTF
 40
0.0393700787
  9
$DIMLFAC
 40
5.0
  9
$DIMTOFL
 70
     1
  9
$DIMTVP
 40
0.0
  9
$DIMTIX
 70
     0
  9
$DIMSOXD
 70
     0
  9
$DIMSAH
 70
     0
  9
$DIMBLK1
  1

  9
$DIMBLK2
  1

  9
$DIMSTYLE
  2
ISO-25
  9
$DIMCLRD
 70
     0
  9
$DIMCLRE
 70
     0
  9
$DIMCLRT
 70
     0
  9
$DIMTFAC
 40
1.0
  9
$DIMGAP
 40
1.524
  9
$DIMJUST
 70
     0
  9
$DIMSD1
 70
     0
  9
$DIMSD2
 70
     0
  9
$DIMTOLJ
 70
     0
  9
$DIMTZIN
 70
     0
  9
$DIMALTZ
 70
     0
  9
$DIMALTTZ
 70
     0
  9
$DIMUPT
 70
     0
  9
$DIMDEC
 70
     3
  9
$DIMTDEC
 70
     3
  9
$DIMALTU
 70
     2
  9
$DIMALTTD
 70
     3
  9
$DIMTXSTY
  7
Standard
  9
$DIMAUNIT
 70
     0
  9
$DIMADEC
 70
     2
  9
$DIMALTRND
 40
0.0
  9
$DIMAZIN
 70
     0
  9
$DIMDSEP
 70
    44
  9
$DIMATFIT
 70
     3
  9
$DIMFRAC
 70
     0
  9
$DIMLDRBLK
  1

  9
$DIMLUNIT
 70
     2
  9
$DIMLWD
 70
    -2
  9
$DIMLWE
 70
    -2
  9
$DIMTMOVE
 70
     0
  9
$LUNITS
 70
     2
  9
$LUPREC
 70
     8
  9
$SKETCHINC
 40
1.0
  9
$FILLETRAD
 40
10.0
  9
$AUNITS
 70
     0
  9
$AUPREC
 70
     8
  9
$MENU
  1
.
  9
$ELEVATION
 40
0.0
  9
$PELEVATION
 40
0.0
  9
$THICKNESS
 40
0.0
  9
$LIMCHECK
 70
     0
  9
$CHAMFERA
 40
10.0
  9
$CHAMFERB
 40
10.0
  9
$CHAMFERC
 40
20.0
  9
$CHAMFERD
 40
0.0
  9
$SKPOLY
 70
     0
  9
$TDCREATE
 40
2457604.601173449
  9
$TDUCREATE
 40
2457604.559506782
  9
$TDUPDATE
 40
2457604.601175613
  9
$TDUUPDATE
 40
2457604.559508947
  9
$TDINDWG
 40
0.0000000116
  9
$TDUSRTIMER
 40
0.0000000116
  9
$USRTIMER
 70
     1
  9
$ANGBASE
 50
0.0
  9
$ANGDIR
 70
     0
  9
$PDMODE
 70
     0
  9
$PDSIZE
 40
-1.0
  9
$PLINEWID
 40
0.0
  9
$SPLFRAME
 70
     0
  9
$SPLINETYPE
 70
     6
  9
$SPLINESEGS
 70
     8
  9
$HANDSEED
  5
339
  9
$SURFTAB1
 70
     6
  9
$SURFTAB2
 70
     6
  9
$SURFTYPE
 70
     6
  9
$SURFU
 70
     6
  9
$SURFV
 70
     6
  9
$UCSBASE
  2

  9
$UCSNAME
  2

  9
$UCSORG
 10
0.0
 20
0.0
 30
0.0
  9
$UCSXDIR
 10
1.0
 20
0.0
 30
0.0
  9
$UCSYDIR
 10
0.0
 20
1.0
 30
0.0
  9
$UCSORTHOREF
  2

  9
$UCSORTHOVIEW
 70
     0
  9
$UCSORGTOP
 10
0.0
 20
0.0
 30
0.0
  9
$UCSORGBOTTOM
 10
0.0
 20
0.0
 30
0.0
  9
$UCSORGLEFT
 10
0.0
 20
0.0
 30
0.0
  9
$UCSORGRIGHT
 10
0.0
 20
0.0
 30
0.0
  9
$UCSORGFRONT
 10
0.0
 20
0.0
 30
0.0
  9
$UCSORGBACK
 10
0.0
 20
0.0
 30
0.0
  9
$PUCSBASE
  2

  9
$PUCSNAME
  2

  9
$PUCSORG
 10
0.0
 20
0.0
 30
0.0
  9
$PUCSXDIR
 10
1.0
 20
0.0
 30
0.0
  9
$PUCSYDIR
 10
0.0
 20
1.0
 30
0.0
  9
$PUCSORTHOREF
  2

  9
$PUCSORTHOVIEW
 70
     0
  9
$PUCSORGTOP
 10
0.0
 20
0.0
 30
0.0
  9
$PUCSORGBOTTOM
 10
0.0
 20
0.0
 30
0.0
  9
$PUCSORGLEFT
 10
0.0
 20
0.0
 30
0.0
  9
$PUCSORGRIGHT
 10
0.0
 20
0.0
 30
0.0
  9
$PUCSORGFRONT
 10
0.0
 20
0.0
 30
0.0
  9
$PUCSORGBACK
 10
0.0
 20
0.0
 30
0.0
  9
$USERI1
 70
     0
  9
$USERI2
 70
     0
  9
$USERI3
 70
     0
  9
$USERI4
 70
     0
  9
$USERI5
 70
     0
  9
$USERR1
 40
0.0
  9
$USERR2
 40
0.0
  9
$USERR3
 40
0.0
  9
$USERR4
 40
0.0
  9
$USERR5
 40
0.0
  9
$WORLDVIEW
 70
     1
  9
$SHADEDGE
 70
     3
  9
$SHADEDIF
 70
    70
  9
$TILEMODE
 70
     1
  9
$MAXACTVP
 70
    64
  9
$PINSBASE
 10
0.0
 20
0.0
 30
0.0
  9
$PLIMCHECK
 70
     0
  9
$PEXTMIN
 10
1.0000000000E+20
 20
1.0000000000E+20
 30
1.0000000000E+20
  9
$PEXTMAX
 10
-1.0000000000E+20
 20
-1.0000000000E+20
 30
-1.0000000000E+20
  9
$PLIMMIN
 10
0.0
 20
0.0
  9
$PLIMMAX
 10
420.0
 20
297.0
  9
$UNITMODE
 70
     0
  9
$VISRETAIN
 70
     1
  9
$PLINEGEN
 70
     0
  9
$PSLTSCALE
 70
     1
  9
$TREEDEPTH
 70
  3020
  9
$CMLSTYLE
  2
Standard
  9
$CMLJUST
 70
     0
  9
$CMLSCALE
 40
20.0
  9
$PROXYGRAPHICS
 70
     1
  9
$MEASUREMENT
 70
     1
  9
$CELWEIGHT
370
    -1
  9
$ENDCAPS
280
     0
  9
$JOINSTYLE
280
     0
  9
$LWDISPLAY
290
     1
  9
$INSUNITS
 70
     4
  9
$HYPERLINKBASE
  1

  9
$STYLESHEET
  1

  9
$XEDIT
290
     1
  9
$CEPSNTYPE
380
     0
  9
$PSTYLEMODE
290
     1
  9
$FINGERPRINTGUID
  2
{04AEB589-8A88-4A55-8665-8ED9FC5FF2B9}
  9
$VERSIONGUID
  2
{FAEB1C32-E019-11D5-929B-00C0DF256EC4}
  9
$EXTNAMES
290
     1
  9
$PSVPSCALE
 40
0.0
  9
$OLESTARTUP
290
     0
  0
ENDSEC
  0
SECTION
  2
CLASSES
  0
CLASS
  1
ACDBDICTIONARYWDFLT
  2
AcDbDictionaryWithDefault
  3
ObjectDBX Classes
 90
        0
280
     0
281
     0
  0
CLASS
  1
VISUALSTYLE
  2
AcDbVisualStyle
  3
ObjectDBX Classes
 90
     4095
280
     0
281
     0
  0
CLASS
  1
MATERIAL
  2
AcDbMaterial
  3
ObjectDBX Classes
 90
     1153
280
     0
281
     0
  0
CLASS
  1
ACDBPLACEHOLDER
  2
AcDbPlaceHolder
  3
ObjectDBX Classes
 90
        0
280
     0
281
     0
  0
CLASS
  1
LAYOUT
  2
AcDbLayout
  3
ObjectDBX Classes
 90
        0
280
     0
281
     0
  0
ENDSEC
  0
SECTION
  2
TABLES
  0
TABLE
  2
VPORT
  5
8
330
0
100
AcDbSymbolTable
 70
     1
  0
VPORT
  5
29
330
8
100
AcDbSymbolTableRecord
100
AcDbViewportTableRecord
  2
*Active
 70
     0
 10
0.0
 20
0.0
 11
1.0
 21
1.0
 12
215.9
 22
139.7
 13
0.0
 23
0.0
 14
10.0
 24
10.0
 15
10.0
 25
10.0
 16
0.0
 26
0.0
 36
1.0
 17
0.0
 27
0.0
 37
0.0
 40
279.4
 41
1.5454545455
 42
50.0
 43
0.0
 44
0.0
 50
0.0
 51
0.0
 71
     0
 72
  2000
 73
     1
 74
     3
 75
     0
 76
     0
 77
     0
 78
     0
281
     0
 65
     1
110
0.0
120
0.0
130
0.0
111
1.0
121
0.0
131
0.0
112
0.0
122
1.0
132
0.0
 79
     0
146
0.0
  0
ENDTAB
  0
TABLE
  2
LTYPE
  5
5
330
0
100
AcDbSymbolTable
 70
     6
  0
LTYPE
  5
14
330
5
100
AcDbSymbolTableRecord
100
AcDbLinetypeTableRecord
  2
ByBlock
 70
     0
  3

 72
    65
 73
     0
 40
0.0
  0
LTYPE
  5
15
330
5
100
AcDbSymbolTableRecord
100
AcDbLinetypeTableRecord
  2
ByLayer
 70
     0
  3

 72
    65
 73
     0
 40
0.0
  0
LTYPE
  5
16
330
5
100
AcDbSymbolTableRecord
100
AcDbLinetypeTableRecord
  2
Continuous
 70
     0
  3
Solid line
 72
    65
 73
     0
 40
0.0
  0
LTYPE
  5
3F
330
5
100
AcDbSymbolTableRecord
100
AcDbLinetypeTableRecord
  2
HIDDEN
 70
     0
  3
Hidden __ __ __ __ __ __ __ __ __ __ __ __ __ __
 72
    65
 73
     2
 40
1.905
 49
1.27
 74
     0
 49
-0.635
 74
     0
  0
LTYPE
  5
40
330
5
100
AcDbSymbolTableRecord
100
AcDbLinetypeTableRecord
  2
PHANTOM
 70
     0
  3
Phantom ______  __  __  ______  __  __  ______
 72
    65
 73
     6
 40
12.7
 49
6.35
 74
     0
 49
-1.27
 74
     0
 49
1.27
 74
     0
 49
-1.27
 74
     0
 49
1.27
 74
     0
 49
-1.27
 74
     0
  0
LTYPE
  5
41
330
5
100
AcDbSymbolTableRecord
100
AcDbLinetypeTableRecord
  2
CENTER
 70
     0
  3
Center ____ _ ____ _ ____ _ ____ _ ____ _ ____
 72
    65
 73
     4
 40
10.16
 49
6.35
 74
     0
 49
-1.27
 74
     0
 49
1.27
 74
     0
 49
-1.27
 74
     0
  0
LTYPE
  5
42
330
5
100
AcDbSymbolTableRecord
100
AcDbLinetypeTableRecord
  2
CENTERX2
 70
     0
  3
Center (2x) ________  __  ________  __  _____
 72
    65
 73
     4
 40
20.32
 49
12.7
 74
     0
 49
-2.54
 74
     0
 49
2.54
 74
     0
 49
-2.54
 74
     0
  0
LTYPE
  5
43
330
5
100
AcDbSymbolTableRecord
100
AcDbLinetypeTableRecord
  2
DOT2
 70
     0
  3
Dot (.5x) ........................................
 72
    65
 73
     2
 40
0.635
 49
0.0
 74
     0
 49
-0.635
 74
     0
  0
ENDTAB
  0
TABLE
  2
LAYER
  5
2
330
0
100
AcDbSymbolTable
 70
     1
  0
LAYER
  5
10
330
2
100
AcDbSymbolTableRecord
100
AcDbLayerTableRecord
  2
0
 70
     0
 62
     7
  6
Continuous
370
    -3
390
F
  0
ENDTAB
  0
TABLE
  2
STYLE
  5
3
330
0
100
AcDbSymbolTable
 70
     1
  0
STYLE
  5
11
330
3
100
AcDbSymbolTableRecord
100
AcDbTextStyleTableRecord
  2
Standard
 70
     0
 40
0.0
 41
1.0
 50
0.0
 71
     0
 42
3.5
  3
txt
  4

  0
ENDTAB
  0
TABLE
  2
VIEW
  5
6
330
0
100
AcDbSymbolTable
 70
     0
  0
ENDTAB
  0
TABLE
  2
UCS
  5
7
330
0
100
AcDbSymbolTable
 70
     0
  0
ENDTAB
  0
TABLE
  2
APPID
  5
9
330
0
100
AcDbSymbolTable
 70
     1
  0
APPID
  5
12
330
9
100
AcDbSymbolTableRecord
100
AcDbRegAppTableRecord
  2
ACAD
 70
     0
  0
ENDTAB
  0
TABLE
  2
DIMSTYLE
  5
A
330
0
100
AcDbSymbolTable
 70
     1
100
AcDbDimStyleTable
  0
DIMSTYLE
105
27
330
A
100
AcDbSymbolTableRecord
100
AcDbDimStyleTableRecord
  2
ISO-25
 70
     0
 41
2.5
 42
0.625
 43
3.75
 44
1.25
 73
     0
 74
     0
 77
     1
 78
     8
140
2.5
141
2.5
143
0.0393700787
147
0.625
171
     3
172
     1
178
     0
271
     2
272
     2
274
     3
278
    44
283
     0
284
     8
340
11
  0
ENDTAB
  0
TABLE
  2
BLOCK_RECORD
  5
1
330
0
100
AcDbSymbolTable
 70
     1
  0
BLOCK_RECORD
  5
1F
330
1
100
AcDbSymbolTableRecord
100
AcDbBlockTableRecord
  2
*Model_Space
340
22
  0
BLOCK_RECORD
  5
1B
330
1
100
AcDbSymbolTableRecord
100
AcDbBlockTableRecord
  2
*Paper_Space
340
1E
  0
BLOCK_RECORD
  5
23
330
1
100
AcDbSymbolTableRecord
100
AcDbBlockTableRecord
  2
*Paper_Space0
340
26
  0
ENDTAB
  0
ENDSEC
  0
SECTION
  2
BLOCKS
  0
BLOCK
  5
20
330
1F
100
AcDbEntity
  8
0
100
AcDbBlockBegin
  2
*Model_Space
 70
     0
 10
0.0
 20
0.0
 30
0.0
  3
*Model_Space
  1

  0
ENDBLK
  5
21
330
1F
100
AcDbEntity
  8
0
100
AcDbBlockEnd
  0
BLOCK
  5
1C
330
1B
100
AcDbEntity
 67
     1
  8
0
100
AcDbBlockBegin
  2
*Paper_Space
 70
     0
 10
0.0
 20
0.0
 30
0.0
  3
*Paper_Space
  1

  0
ENDBLK
  5
1D
330
1B
100
AcDbEntity
 67
     1
  8
0
100
AcDbBlockEnd
  0
BLOCK
  5
24
330
23
100
AcDbEntity
  8
0
100
AcDbBlockBegin
  2
*Paper_Space0
 70
     0
 10
0.0
 20
0.0
 30
0.0
  3
*Paper_Space0
  1

  0
ENDBLK
  5
25
330
23
100
AcDbEntity
  8
0
100
AcDbBlockEnd
  0
ENDSEC
  0
SECTION
  2
ENTITIES
  0
LINE
  5
44
330
1F
100
AcDbEntity
  8
0
  6
Continuous
 62
     7
370
    15
100
AcDbLine
 10
250.8693672935
 20
209.4335342981
 30
0.0
 11
250.8512411378
 21
209.4250819329
 31
0.0
  0
LINE
  5
45
330
1F
100
AcDbEntity
  8
0
  6
Continuous
 62
     7
370
    15
100
AcDbLine
 10
94.4094360429
 20
97.4526957599
 30
0.0
 11
94.3894360429
 21
97.4526957599
 31
0.0
  0
LINE
  5
46
330
1F
100
AcDbEntity
  8
0
  6
Continuous
 62
     7
370
    15
100
AcDbLine
 10
261.5693548463
 20
193.6937338249
 30
0.0
 11
261.9486348711
 21
194.0976459399
 31
0.0
  0
LINE
  5
47
330
1F
100
AcDbEntity
  8
0
  6
Continuous
 62
     7
370
    15
100
AcDbLine
 10
261.1244115331
 20
193.2198939626
 30
0.0
 11
261.1928643571
 21
193.29279241
 31
0.0
  0
LINE
  5
48
330
1F
100
AcDbEntity
  8
0
  6
Continuous
 62
     7
370
    15
100
AcDbLine
 10
260.4741139064
 20
192.5273631868
 30
0.0
 11
260.7821473808
 21
192.8554016914
 31
0.0
  0
LINE
  5
49
330
1F
100
AcDbEntity
  8
0
  6
Continuous
 62
     7
370
    15
100
AcDbLine
 10
257.1307866872
 20
204.4295547121
 30
0.0
 11
254.9800765038
 21
204.3093644183
 31
0.0
  0
LINE
  5
4A
330
1F
100
AcDbEntity
  8
0
  6
Continuous
 62
     7
370
    15
100
AcDbLine
 10
261.9486348711
 20
194.0976459399
 30
0.0
 11
264.7287020902
 21
197.3215396749
 31
0.0
  0
LINE
  5
4B
330
1F
100
AcDbEntity
  8
0
  6
Continuous
 62
     7
370
    15
100
AcDbLine
 10
257.230777604
 20
204.43090251
 30
0.0
 11
257.1307866872
 21
204.4295547121
 31
0.0
  0
ARC
  5
4C
330
1F
100
AcDbEntity
  8
0
  6
Continuous
 62
     7
370
    15
100
AcDbCircle
 10
264.5772398134
 20
197.4521504659
 30
0.0
 40
0.2000000000000154
100
AcDbArc
 50
319.227745318
 51
25.0
  0
LINE
  5
4D
330
1F
100
AcDbEntity
  8
0
  6
Continuous
 62
     7
370
    15
100
AcDbLine
 10
261.1861032697
 20
193.282670512
 30
0.0
 11
261.5711915854
 21
193.6927681336
 31
0.0
  0
LINE
  5
4E
330
1F
100
AcDbEntity
  8
0
  6
Continuous
 62
     7
370
    15
100
AcDbLine
 10
261.0574208047
 20
193.1456308495
 30
0.0
 11
261.1262471064
 21
193.2189270297
 31
0.0
  0
LINE
  5
4F
330
1F
100
AcDbEntity
  8
0
  6
Continuous
 62
     7
370
    15
100
AcDbLine
 10
260.7756490482
 20
192.8455596126
 30
0.0
 11
260.8520621246
 21
192.9269352857
 31
0.0
  0
LINE
  5
50
330
1F
100
AcDbEntity
  8
0
  6
Continuous
 62
     7
370
    15
100
AcDbLine
 10
260.8448211594
 20
192.9221457771
 30
0.0
 11
261.0563339016
 21
193.1473950744
 31
0.0
  0
LINE
  5
51
330
1F
100
AcDbEntity
  8
0
  6
Continuous
 62
     7
370
    15
100
AcDbLine
 10
256.9320610515
 20
196.3373975138
 30
0.0
 11
257.1133226089
 21
196.4219211662
 31
0.0
  0
LINE
  5
52
330
1F
100
AcDbEntity
  8
0
  6
Continuous
 62
     7
370
    15
100
AcDbLine
 10
255.8032059975
 20
199.231475306
 30
0.0
 11
255.6219444401
 21
199.1469516537
 31
0.0
  0
LINE
  5
53
330
1F
100
AcDbEntity
  8
0
  6
Continuous
 62
     7
370
    15
100
AcDbLine
 10
257.1175487915
 20
196.4128580883
 30
0.0
 11
257.6547620423
 21
196.9171416626
 31
0.0
  0
LINE
  5
54
330
1F
100
AcDbEntity
  8
0
  6
Continuous
 62
     7
370
    15
100
AcDbLine
 10
256.530597466
 20
199.3279203761
 30
0.0
 11
255.7989798149
 21
199.2405383839
 31
0.0
  0
ARC
  5
55
330
1F
100
AcDbEntity
  8
0
  6
Continuous
 62
     7
370
    15
100
AcDbCircle
 10
255.5258933938
 20
202.6656160037
 30
0.0
 40
0.4000000000000672
100
AcDbArc
 50
205.0
 51
280.5224878141
  0
ARC
  5
56
330
1F
100
AcDbEntity
  8
0
  6
Continuous
 62
     7
370
    15
100
AcDbCircle
 10
259.5657739016
 20
194.0020642967
 30
0.0
 40
0.4000000000000672
100
AcDbArc
 50
129.4775121859
 51
205.0
  0
LINE
  5
57
330
1F
100
AcDbEntity
  8
0
  6
Continuous
 62
     7
370
    15
100
AcDbLine
 10
261.7710401485
 20
185.9601733523
 30
0.0
 11
261.8594560787
 21
186.0071849363
 31
0.0
  0
LINE
  5
58
330
1F
100
AcDbEntity
  8
0
  6
Continuous
 62
     7
370
    15
100
AcDbLine
 10
260.2022215703
 20
192.4005777083
 30
0.0
 11
261.676742535
 21
193.9708604614
 31
0.0
  0
LINE
  5
59
330
1F
100
AcDbEntity
  8
0
  6
Continuous
 62
     7
370
    15
100
AcDbLine
 10
256.8588943511
 20
204.3027692336
 30
0.0
 11
254.7081841677
 21
204.1825789398
 31
0.0
  0
LINE
  5
5A
330
1F
100
AcDbEntity
  8
0
  6
Continuous
 62
     7
370
    15
100
AcDbLine
 10
261.676742535
 20
193.9708604614
 30
0.0
 11
264.456809754
 21
197.1947541964
 31
0.0
  0
LINE
  5
5B
330
1F
100
AcDbEntity
  8
0
  6
Continuous
 62
     7
370
    15
100
AcDbLine
 10
256.9588852679
 20
204.3041170315
 30
0.0
 11
256.8588943511
 21
204.3027692336
 31
0.0
  0
ARC
  5
5C
330
1F
100
AcDbEntity
  8
0
  6
Continuous
 62
     7
370
    15
100
AcDbCircle
 10
264.3053474773
 20
197.3253649873
 30
0.0
 40
0.2000000000000336
100
AcDbArc
 50
319.227745318
 51
25.0
  0
ARC
  5
5D
330
1F
100
AcDbEntity
  8
0
  6
Continuous
 62
     7
370
    15
100
AcDbCircle
 10
88.0582516791
 20
229.3400522566
 30
0.0
 40
0.4000000000000199
100
AcDbArc
 50
90.0
 51
180.0
  0
ARC
  5
5E
330
1F
100
AcDbEntity
  8
0
  6
Continuous
 62
     7
370
    15
100
AcDbCircle
 10
91.0582516791
 20
229.3400522566
 30
0.0
 40
0.4000000000000057
100
AcDbArc
 50
0.0
 51
90.0
  0
LINE
  5
5F
330
1F
100
AcDbEntity
  8
0
  6
Continuous
 62
     7
370
    15
100
AcDbLine
 10
91.4582516791
 20
227.4400522566
 30
0.0
 11
91.4582516791
 21
229.3400522566
 31
0.0
  0
LINE
  5
60
330
1F
100
AcDbEntity
  8
0
  6
Continuous
 62
     7
370
    15
100
AcDbLine
 10
87.6582516791
 20
229.3400522566
 30
0.0
 11
87.6582516791
 21
227.4400522566
 31
0.0
  0
ELLIPSE
  5
61
330
1F
100
AcDbEntity
  8
0
  6
Continuous
 62
     7
370
    15
100
AcDbEllipse
 10
265.0671019868
 20
154.4090807633
 30
0.0
 11
0.0
 21
-4.0
 31
0.0
210
0.0
220
0.0
230
1.0
 40
0.5
 41
0.0
 42
3.141592653589793
  0
LINE
  5
62
330
1F
100
AcDbEntity
  8
0
  6
Continuous
 62
     7
370
    15
100
AcDbLine
 10
255.088845261
 20
150.4090807633
 30
0.0
 11
265.0671019868
 21
150.4090807633
 31
0.0
  0
LINE
  5
63
330
1F
100
AcDbEntity
  8
0
  6
Continuous
 62
     7
370
    15
100
AcDbLine
 10
265.0671019868
 20
158.4090807633
 30
0.0
 11
255.1018637867
 21
158.4090807633
 31
0.0
  0
LINE
  5
64
330
1F
100
AcDbEntity
  8
0
  6
Continuous
 62
     7
370
    15
100
AcDbLine
 10
243.5871019868
 20
82.6900522567
 30
0.0
 11
243.4871019868
 21
82.6900522567
 31
0.0
  0
LINE
  5
65
330
1F
100
AcDbEntity
  8
0
  6
Continuous
 62
     7
370
    15
100
AcDbLine
 10
243.4871019868
 20
80.9900522567
 30
0.0
 11
243.5871019868
 21
80.9900522567
 31
0.0
  0
LINE
  5
66
330
1F
100
AcDbEntity
  8
0
  6
Continuous
 62
     7
370
    15
100
AcDbLine
 10
243.5871019868
 20
87.6900522567
 30
0.0
 11
243.4871019868
 21
87.6900522567
 31
0.0
  0
LINE
  5
67
330
1F
100
AcDbEntity
  8
0
  6
Continuous
 62
     7
370
    15
100
AcDbLine
 10
243.4871019868
 20
85.9900522567
 30
0.0
 11
243.5871019868
 21
85.9900522567
 31
0.0
  0
LINE
  5
68
330
1F
100
AcDbEntity
  8
0
  6
Continuous
 62
     7
370
    15
100
AcDbLine
 10
243.5871019868
 20
162.7015992615
 30
0.0
 11
243.4871019868
 21
162.7015992615
 31
0.0
  0
LINE
  5
69
330
1F
100
AcDbEntity
  8
0
  6
Continuous
 62
     7
370
    15
100
AcDbLine
 10
243.4871019868
 20
161.0015992615
 30
0.0
 11
243.5871019868
 21
161.0015992615
 31
0.0
  0
LINE
  5
6A
330
1F
100
AcDbEntity
  8
0
  6
Continuous
 62
     7
370
    15
100
AcDbLine
 10
243.5871019868
 20
167.6900522567
 30
0.0
 11
243.4871019868
 21
167.6900522567
 31
0.0
  0
LINE
  5
6B
330
1F
100
AcDbEntity
  8
0
  6
Continuous
 62
     7
370
    15
100
AcDbLine
 10
243.4871019868
 20
165.9900522567
 30
0.0
 11
243.5871019868
 21
165.9900522567
 31
0.0
  0
LINE
  5
6C
330
1F
100
AcDbEntity
  8
0
  6
Continuous
 62
     7
370
    15
100
AcDbLine
 10
243.7460750441
 20
167.7100522567
 30
0.0
 11
243.5871019868
 21
167.7100522567
 31
0.0
  0
LINE
  5
6D
330
1F
100
AcDbEntity
  8
0
  6
Continuous
 62
     7
370
    15
100
AcDbLine
 10
243.5871019868
 20
165.9700522567
 30
0.0
 11
243.7460750441
 21
165.9700522567
 31
0.0
  0
ARC
  5
6E
330
1F
100
AcDbEntity
  8
0
  6
Continuous
 62
     7
370
    15
100
AcDbCircle
 10
243.7460750441
 20
167.6700522567
 30
0.0
 40
0.0400000000000205
100
AcDbArc
 50
13.8797172508
 51
90.0
  0
ARC
  5
6F
330
1F
100
AcDbEntity
  8
0
  6
Continuous
 62
     7
370
    15
100
AcDbCircle
 10
243.7460750441
 20
166.0100522567
 30
0.0
 40
0.0400000000000205
100
AcDbArc
 50
270.0
 51
346.1202827493
  0
ARC
  5
70
330
1F
100
AcDbEntity
  8
0
  6
Continuous
 62
     7
370
    15
100
AcDbCircle
 10
240.3871019868
 20
166.8400522567
 30
0.0
 40
3.50000000000003
100
AcDbArc
 50
346.1202827493
 51
13.8797172507
  0
LINE
  5
71
330
1F
100
AcDbEntity
  8
0
  6
Continuous
 62
     7
370
    15
100
AcDbLine
 10
243.7460750441
 20
82.7100522567
 30
0.0
 11
243.5871019868
 21
82.7100522567
 31
0.0
  0
LINE
  5
72
330
1F
100
AcDbEntity
  8
0
  6
Continuous
 62
     7
370
    15
100
AcDbLine
 10
243.5871019868
 20
80.9700522567
 30
0.0
 11
243.7460750441
 21
80.9700522567
 31
0.0
  0
ARC
  5
73
330
1F
100
AcDbEntity
  8
0
  6
Continuous
 62
     7
370
    15
100
AcDbCircle
 10
243.7460750441
 20
82.6700522567
 30
0.0
 40
0.039999999999992
100
AcDbArc
 50
13.8797172508
 51
90.0
  0
ARC
  5
74
330
1F
100
AcDbEntity
  8
0
  6
Continuous
 62
     7
370
    15
100
AcDbCircle
 10
243.7460750441
 20
81.0100522567
 30
0.0
 40
0.0400000000000063
100
AcDbArc
 50
270.0
 51
346.1202827492
  0
ARC
  5
75
330
1F
100
AcDbEntity
  8
0
  6
Continuous
 62
     7
370
    15
100
AcDbCircle
 10
240.3871019868
 20
81.8400522567
 30
0.0
 40
3.500000000000003
100
AcDbArc
 50
346.1202827493
 51
13.8797172507
  0
LINE
  5
76
330
1F
100
AcDbEntity
  8
0
  6
Continuous
 62
     7
370
    15
100
AcDbLine
 10
243.7460750441
 20
87.7100522567
 30
0.0
 11
243.5871019868
 21
87.7100522567
 31
0.0
  0
LINE
  5
77
330
1F
100
AcDbEntity
  8
0
  6
Continuous
 62
     7
370
    15
100
AcDbLine
 10
243.5871019868
 20
85.9700522567
 30
0.0
 11
243.7460750441
 21
85.9700522567
 31
0.0
  0
ARC
  5
78
330
1F
100
AcDbEntity
  8
0
  6
Continuous
 62
     7
370
    15
100
AcDbCircle
 10
243.7460750441
 20
87.6700522567
 30
0.0
 40
0.0400000000000063
100
AcDbArc
 50
13.8797172507
 51
90.0
  0
ARC
  5
79
330
1F
100
AcDbEntity
  8
0
  6
Continuous
 62
     7
370
    15
100
AcDbCircle
 10
243.7460750441
 20
86.0100522567
 30
0.0
 40
0.039999999999992
100
AcDbArc
 50
270.0
 51
346.1202827493
  0
ARC
  5
7A
330
1F
100
AcDbEntity
  8
0
  6
Continuous
 62
     7
370
    15
100
AcDbCircle
 10
240.3871019868
 20
86.8400522567
 30
0.0
 40
3.500000000000003
100
AcDbArc
 50
346.1202827493
 51
13.8797172507
  0
ARC
  5
7B
330
1F
100
AcDbEntity
  8
0
  6
Continuous
 62
     7
370
    15
100
AcDbCircle
 10
243.7460750441
 20
162.6815992615
 30
0.0
 40
0.0400000000000205
100
AcDbArc
 50
13.8797172508
 51
90.0
  0
ARC
  5
7C
330
1F
100
AcDbEntity
  8
0
  6
Continuous
 62
     7
370
    15
100
AcDbCircle
 10
243.7460750441
 20
161.0215992615
 30
0.0
 40
0.039999999999992
100
AcDbArc
 50
270.0
 51
346.1202827493
  0
LINE
  5
7D
330
1F
100
AcDbEntity
  8
0
  6
Continuous
 62
     7
370
    15
100
AcDbLine
 10
243.7460750441
 20
162.7215992615
 30
0.0
 11
243.5871019868
 21
162.7215992615
 31
0.0
  0
LINE
  5
7E
330
1F
100
AcDbEntity
  8
0
  6
Continuous
 62
     7
370
    15
100
AcDbLine
 10
243.5871019868
 20
160.9815992615
 30
0.0
 11
243.7460750441
 21
160.9815992615
 31
0.0
  0
ARC
  5
7F
330
1F
100
AcDbEntity
  8
0
  6
Continuous
 62
     7
370
    15
100
AcDbCircle
 10
240.3871019868
 20
161.8515992615
 30
0.0
 40
3.500000000000003
100
AcDbArc
 50
346.1202827493
 51
13.8797172507
  0
ARC
  5
80
330
1F
100
AcDbEntity
  8
0
  6
Continuous
 62
     7
370
    15
100
AcDbCircle
 10
231.1671019868
 20
44.1000522567
 30
0.0
 40
0.4000000000000057
100
AcDbArc
 50
270.0
 51
0.0
  0
ARC
  5
81
330
1F
100
AcDbEntity
  8
0
  6
Continuous
 62
     7
370
    15
100
AcDbCircle
 10
220.5671019868
 20
44.1000522567
 30
0.0
 40
0.4000000000000057
100
AcDbArc
 50
180.0
 51
270.0
  0
LINE
  5
82
330
1F
100
AcDbEntity
  8
0
  6
Continuous
 62
     7
370
    15
100
AcDbLine
 10
231.5671019868
 20
44.1000522567
 30
0.0
 11
231.5671019868
 21
44.9000522567
 31
0.0
  0
LINE
  5
83
330
1F
100
AcDbEntity
  8
0
  6
Continuous
 62
     7
370
    15
100
AcDbLine
 10
220.1671019868
 20
44.9000522567
 30
0.0
 11
220.1671019868
 21
44.1000522567
 31
0.0
  0
LINE
  5
84
330
1F
100
AcDbEntity
  8
0
  6
Continuous
 62
     7
370
    15
100
AcDbLine
 10
115.7671019868
 20
45.1000522567
 30
0.0
 11
115.7671019868
 21
45.2000522567
 31
0.0
  0
LINE
  5
85
330
1F
100
AcDbEntity
  8
0
  6
Continuous
 62
     7
370
    15
100
AcDbLine
 10
104.3671019868
 20
45.2000522567
 30
0.0
 11
104.3671019868
 21
45.1000522567
 31
0.0
  0
LINE
  5
86
330
1F
100
AcDbEntity
  8
0
  6
Continuous
 62
     7
370
    15
100
AcDbLine
 10
115.7671019868
 20
44.3000522567
 30
0.0
 11
115.7671019868
 21
45.1000522567
 31
0.0
  0
LINE
  5
87
330
1F
100
AcDbEntity
  8
0
  6
Continuous
 62
     7
370
    15
100
AcDbLine
 10
104.3671019868
 20
45.1000522567
 30
0.0
 11
104.3671019868
 21
44.3000522567
 31
0.0
  0
ARC
  5
88
330
1F
100
AcDbEntity
  8
0
  6
Continuous
 62
     7
370
    15
100
AcDbCircle
 10
115.3671019868
 20
44.3000522567
 30
0.0
 40
0.3999999999999986
100
AcDbArc
 50
270.0
 51
0.0
  0
ARC
  5
89
330
1F
100
AcDbEntity
  8
0
  6
Continuous
 62
     7
370
    15
100
AcDbCircle
 10
104.7671019868
 20
44.3000522567
 30
0.0
 40
0.4000000000000057
100
AcDbArc
 50
180.0
 51
270.0
  0
LINE
  5
8A
330
1F
100
AcDbEntity
  8
0
  6
Continuous
 62
     7
370
    15
100
AcDbLine
 10
115.7271019868
 20
45.1000522567
 30
0.0
 11
115.7271019868
 21
58.7000522567
 31
0.0
  0
LINE
  5
8B
330
1F
100
AcDbEntity
  8
0
  6
Continuous
 62
     7
370
    15
100
AcDbLine
 10
104.4071019868
 20
58.7000522567
 30
0.0
 11
104.4071019868
 21
45.1000522567
 31
0.0
  0
LINE
  5
8C
330
1F
100
AcDbEntity
  8
0
  6
Continuous
 62
     7
370
    15
100
AcDbLine
 10
231.5271019868
 20
44.9000522567
 30
0.0
 11
231.5271019868
 21
58.5000522567
 31
0.0
  0
LINE
  5
8D
330
1F
100
AcDbEntity
  8
0
  6
Continuous
 62
     7
370
    15
100
AcDbLine
 10
220.2071019868
 20
58.5000522567
 30
0.0
 11
220.2071019868
 21
44.9000522567
 31
0.0
  0
ARC
  5
8E
330
1F
100
AcDbEntity
  8
0
  6
Continuous
 62
     7
370
    15
100
AcDbCircle
 10
232.5471019868
 20
77.0000522567
 30
0.0
 40
0.2999999999999972
100
AcDbArc
 50
90.0
 51
180.0
  0
ARC
  5
8F
330
1F
100
AcDbEntity
  8
0
  6
Continuous
 62
     7
370
    15
100
AcDbCircle
 10
219.1871019868
 20
77.0000522567
 30
0.0
 40
0.2999999999999972
100
AcDbArc
 50
0.0
 51
90.0
  0
LINE
  5
90
330
1F
100
AcDbEntity
  8
0
  6
Continuous
 62
     7
370
    15
100
AcDbLine
 10
232.2471019868
 20
59.7065654458
 30
0.0
 11
232.2471019868
 21
77.0000522567
 31
0.0
  0
LINE
  5
91
330
1F
100
AcDbEntity
  8
0
  6
Continuous
 62
     7
370
    15
100
AcDbLine
 10
219.4871019868
 20
77.0000522567
 30
0.0
 11
219.4871019868
 21
59.7065654458
 31
0.0
  0
ARC
  5
92
330
1F
100
AcDbEntity
  8
0
  6
Continuous
 62
     7
370
    15
100
AcDbCircle
 10
231.3071019868
 20
59.7065654458
 30
0.0
 40
0.9400000000000261
100
AcDbArc
 50
350.5402980318
 51
0.0
  0
ARC
  5
93
330
1F
100
AcDbEntity
  8
0
  6
Continuous
 62
     7
370
    15
100
AcDbCircle
 10
220.4271019868
 20
59.7065654458
 30
0.0
 40
0.9400000000000036
100
AcDbArc
 50
180.0
 51
189.4597019682
  0
LINE
  5
94
330
1F
100
AcDbEntity
  8
0
  6
Continuous
 62
     7
370
    15
100
AcDbLine
 10
219.4998846322
 20
59.5520728009
 30
0.0
 11
219.6751719427
 21
58.5000522567
 31
0.0
  0
LINE
  5
95
330
1F
100
AcDbEntity
  8
0
  6
Continuous
 62
     7
370
    15
100
AcDbLine
 10
232.0590320309
 20
58.5000522567
 30
0.0
 11
232.2343193414
 21
59.5520728009
 31
0.0
  0
ARC
  5
96
330
1F
100
AcDbEntity
  8
0
  6
Continuous
 62
     7
370
    15
100
AcDbCircle
 10
116.7471019868
 20
77.2000522567
 30
0.0
 40
0.2999999999999829
100
AcDbArc
 50
90.0
 51
180.0
  0
ARC
  5
97
330
1F
100
AcDbEntity
  8
0
  6
Continuous
 62
     7
370
    15
100
AcDbCircle
 10
103.3871019868
 20
77.2000522567
 30
0.0
 40
0.2999999999999972
100
AcDbArc
 50
0.0
 51
90.0
  0
ARC
  5
98
330
1F
100
AcDbEntity
  8
0
  6
Continuous
 62
     7
370
    15
100
AcDbCircle
 10
115.5071019868
 20
59.9065654458
 30
0.0
 40
0.9400000000000261
100
AcDbArc
 50
350.5402980318
 51
0.0
  0
ARC
  5
99
330
1F
100
AcDbEntity
  8
0
  6
Continuous
 62
     7
370
    15
100
AcDbCircle
 10
104.6271019868
 20
59.9065654458
 30
0.0
 40
0.9400000000000025
100
AcDbArc
 50
180.0
 51
189.4597019682
  0
LINE
  5
9A
330
1F
100
AcDbEntity
  8
0
  6
Continuous
 62
     7
370
    15
100
AcDbLine
 10
116.4471019868
 20
59.9065654458
 30
0.0
 11
116.4471019868
 21
77.2000522567
 31
0.0
  0
LINE
  5
9B
330
1F
100
AcDbEntity
  8
0
  6
Continuous
 62
     7
370
    15
100
AcDbLine
 10
103.6871019868
 20
77.2000522567
 30
0.0
 11
103.6871019868
 21
59.9065654458
 31
0.0
  0
LINE
  5
9C
330
1F
100
AcDbEntity
  8
0
  6
Continuous
 62
     7
370
    15
100
AcDbLine
 10
103.6998846322
 20
59.7520728009
 30
0.0
 11
103.8751719427
 21
58.7000522567
 31
0.0
  0
LINE
  5
9D
330
1F
100
AcDbEntity
  8
0
  6
Continuous
 62
     7
370
    15
100
AcDbLine
 10
116.2590320309
 20
58.7000522567
 30
0.0
 11
116.4343193414
 21
59.7520728009
 31
0.0
  0
ARC
  5
9E
330
1F
100
AcDbEntity
  8
0
  6
Continuous
 62
     7
370
    15
100
AcDbCircle
 10
166.7271019868
 20
77.8600522567
 30
0.0
 40
0.0600000000000023
100
AcDbArc
 50
199.4712206332
 51
270.0
  0
ARC
  5
9F
330
1F
100
AcDbEntity
  8
0
  6
Continuous
 62
     7
370
    15
100
AcDbCircle
 10
168.0471019868
 20
77.8600522567
 30
0.0
 40
0.0600000000000055
100
AcDbArc
 50
270.0
 51
340.5287793669
  0
ARC
  5
A0
330
1F
100
AcDbEntity
  8
0
  6
Continuous
 62
     7
370
    15
100
AcDbCircle
 10
166.7071019868
 20
77.7400522567
 30
0.0
 40
0.0600000000000023
100
AcDbArc
 50
0.0
 51
90.0
  0
ARC
  5
A1
330
1F
100
AcDbEntity
  8
0
  6
Continuous
 62
     7
370
    15
100
AcDbCircle
 10
168.0671019868
 20
77.7400522567
 30
0.0
 40
0.0600000000000023
100
AcDbArc
 50
90.0
 51
180.0
  0
LINE
  5
A2
330
1F
100
AcDbEntity
  8
0
  6
Continuous
 62
     7
370
    15
100
AcDbLine
 10
166.7671019868
 20
77.2200522567
 30
0.0
 11
166.8171019868
 21
77.1000522567
 31
0.0
  0
LINE
  5
A3
330
1F
100
AcDbEntity
  8
0
  6
Continuous
 62
     7
370
    15
100
AcDbLine
 10
167.9571019868
 20
77.1000522567
 30
0.0
 11
168.0071019868
 21
77.2200522567
 31
0.0
  0
LINE
  5
A4
330
1F
100
AcDbEntity
  8
0
  6
Continuous
 62
     7
370
    15
100
AcDbLine
 10
166.7671019868
 20
77.7400522567
 30
0.0
 11
166.7671019868
 21
77.2200522567
 31
0.0
  0
LINE
  5
A5
330
1F
100
AcDbEntity
  8
0
  6
Continuous
 62
     7
370
    15
100
AcDbLine
 10
168.0071019868
 20
77.2200522567
 30
0.0
 11
168.0071019868
 21
77.7400522567
 31
0.0
  0
ARC
  5
A6
330
1F
100
AcDbEntity
  8
0
  6
Continuous
 62
     7
370
    15
100
AcDbCircle
 10
158.0071019868
 20
77.8600522567
 30
0.0
 40
0.0600000000000055
100
AcDbArc
 50
199.4712206331
 51
270.0
  0
ARC
  5
A7
330
1F
100
AcDbEntity
  8
0
  6
Continuous
 62
     7
370
    15
100
AcDbCircle
 10
159.3271019868
 20
77.8600522567
 30
0.0
 40
0.0600000000000055
100
AcDbArc
 50
270.0
 51
340.5287793669
  0
ARC
  5
A8
330
1F
100
AcDbEntity
  8
0
  6
Continuous
 62
     7
370
    15
100
AcDbCircle
 10
157.9871019868
 20
77.7400522567
 30
0.0
 40
0.0600000000000023
100
AcDbArc
 50
0.0
 51
90.0
  0
ARC
  5
A9
330
1F
100
AcDbEntity
  8
0
  6
Continuous
 62
     7
370
    15
100
AcDbCircle
 10
159.3471019868
 20
77.7400522567
 30
0.0
 40
0.0600000000000023
100
AcDbArc
 50
90.0
 51
180.0
  0
LINE
  5
AA
330
1F
100
AcDbEntity
  8
0
  6
Continuous
 62
     7
370
    15
100
AcDbLine
 10
158.0471019868
 20
77.7400522567
 30
0.0
 11
158.0471019868
 21
77.2200522567
 31
0.0
  0
LINE
  5
AB
330
1F
100
AcDbEntity
  8
0
  6
Continuous
 62
     7
370
    15
100
AcDbLine
 10
159.2871019868
 20
77.2200522567
 30
0.0
 11
159.2871019868
 21
77.7400522567
 31
0.0
  0
LINE
  5
AC
330
1F
100
AcDbEntity
  8
0
  6
Continuous
 62
     7
370
    15
100
AcDbLine
 10
158.0471019868
 20
77.2200522567
 30
0.0
 11
158.0971019868
 21
77.1000522567
 31
0.0
  0
LINE
  5
AD
330
1F
100
AcDbEntity
  8
0
  6
Continuous
 62
     7
370
    15
100
AcDbLine
 10
159.2371019868
 20
77.1000522567
 30
0.0
 11
159.2871019868
 21
77.2200522567
 31
0.0
  0
ARC
  5
AE
330
1F
100
AcDbEntity
  8
0
  6
Continuous
 62
     7
370
    15
100
AcDbCircle
 10
208.4071019868
 20
77.8600522567
 30
0.0
 40
0.0600000000000055
100
AcDbArc
 50
199.4712206331
 51
270.0
  0
ARC
  5
AF
330
1F
100
AcDbEntity
  8
0
  6
Continuous
 62
     7
370
    15
100
AcDbCircle
 10
209.7271019868
 20
77.8600522567
 30
0.0
 40
0.0600000000000055
100
AcDbArc
 50
270.0
 51
340.5287793669
  0
ARC
  5
B0
330
1F
100
AcDbEntity
  8
0
  6
Continuous
 62
     7
370
    15
100
AcDbCircle
 10
208.3871019868
 20
77.7400522567
 30
0.0
 40
0.0600000000000023
100
AcDbArc
 50
0.0
 51
90.0
  0
ARC
  5
B1
330
1F
100
AcDbEntity
  8
0
  6
Continuous
 62
     7
370
    15
100
AcDbCircle
 10
209.7471019868
 20
77.7400522567
 30
0.0
 40
0.0600000000000023
100
AcDbArc
 50
90.0
 51
180.0
  0
LINE
  5
B2
330
1F
100
AcDbEntity
  8
0
  6
Continuous
 62
     7
370
    15
100
AcDbLine
 10
208.4471019868
 20
77.2200522567
 30
0.0
 11
208.4971019868
 21
77.1000522567
 31
0.0
  0
LINE
  5
B3
330
1F
100
AcDbEntity
  8
0
  6
Continuous
 62
     7
370
    15
100
AcDbLine
 10
209.6371019868
 20
77.1000522567
 30
0.0
 11
209.6871019868
 21
77.2200522567
 31
0.0
  0
LINE
  5
B4
330
1F
100
AcDbEntity
  8
0
  6
Continuous
 62
     7
370
    15
100
AcDbLine
 10
208.4471019868
 20
77.7400522567
 30
0.0
 11
208.4471019868
 21
77.2200522567
 31
0.0
  0
LINE
  5
B5
330
1F
100
AcDbEntity
  8
0
  6
Continuous
 62
     7
370
    15
100
AcDbLine
 10
209.6871019868
 20
77.2200522567
 30
0.0
 11
209.6871019868
 21
77.7400522567
 31
0.0
  0
ARC
  5
B6
330
1F
100
AcDbEntity
  8
0
  6
Continuous
 62
     7
370
    15
100
AcDbCircle
 10
130.8671019868
 20
77.8600522567
 30
0.0
 40
0.0600000000000055
100
AcDbArc
 50
199.4712206331
 51
270.0
  0
ARC
  5
B7
330
1F
100
AcDbEntity
  8
0
  6
Continuous
 62
     7
370
    15
100
AcDbCircle
 10
132.1871019868
 20
77.8600522567
 30
0.0
 40
0.0600000000000023
100
AcDbArc
 50
270.0
 51
340.5287793668
  0
ARC
  5
B8
330
1F
100
AcDbEntity
  8
0
  6
Continuous
 62
     7
370
    15
100
AcDbCircle
 10
130.8471019868
 20
77.7400522567
 30
0.0
 40
0.0600000000000307
100
AcDbArc
 50
0.0
 51
90.0
  0
ARC
  5
B9
330
1F
100
AcDbEntity
  8
0
  6
Continuous
 62
     7
370
    15
100
AcDbCircle
 10
132.2071019868
 20
77.7400522567
 30
0.0
 40
0.0600000000000023
100
AcDbArc
 50
90.0
 51
180.0
  0
LINE
  5
BA
330
1F
100
AcDbEntity
  8
0
  6
Continuous
 62
     7
370
    15
100
AcDbLine
 10
130.9071019868
 20
77.7400522567
 30
0.0
 11
130.9071019868
 21
77.2200522567
 31
0.0
  0
LINE
  5
BB
330
1F
100
AcDbEntity
  8
0
  6
Continuous
 62
     7
370
    15
100
AcDbLine
 10
132.1471019868
 20
77.2200522567
 30
0.0
 11
132.1471019868
 21
77.7400522567
 31
0.0
  0
LINE
  5
BC
330
1F
100
AcDbEntity
  8
0
  6
Continuous
 62
     7
370
    15
100
AcDbLine
 10
130.9071019868
 20
77.2200522567
 30
0.0
 11
130.9571019868
 21
77.1000522567
 31
0.0
  0
LINE
  5
BD
330
1F
100
AcDbEntity
  8
0
  6
Continuous
 62
     7
370
    15
100
AcDbLine
 10
132.0971019868
 20
77.1000522567
 30
0.0
 11
132.1471019868
 21
77.2200522567
 31
0.0
  0
ARC
  5
BE
330
1F
100
AcDbEntity
  8
0
  6
Continuous
 62
     7
370
    15
100
AcDbCircle
 10
185.4871019868
 20
77.8600522567
 30
0.0
 40
0.0600000000000055
100
AcDbArc
 50
199.4712206331
 51
270.0
  0
ARC
  5
BF
330
1F
100
AcDbEntity
  8
0
  6
Continuous
 62
     7
370
    15
100
AcDbCircle
 10
186.8071019868
 20
77.8600522567
 30
0.0
 40
0.0600000000000023
100
AcDbArc
 50
270.0
 51
340.5287793668
  0
ARC
  5
C0
330
1F
100
AcDbEntity
  8
0
  6
Continuous
 62
     7
370
    15
100
AcDbCircle
 10
185.4671019868
 20
77.7400522567
 30
0.0
 40
0.0600000000000023
100
AcDbArc
 50
0.0
 51
90.0
  0
ARC
  5
C1
330
1F
100
AcDbEntity
  8
0
  6
Continuous
 62
     7
370
    15
100
AcDbCircle
 10
186.8271019868
 20
77.7400522567
 30
0.0
 40
0.0600000000000023
100
AcDbArc
 50
90.0
 51
180.0
  0
LINE
  5
C2
330
1F
100
AcDbEntity
  8
0
  6
Continuous
 62
     7
370
    15
100
AcDbLine
 10
185.5271019868
 20
77.2200522567
 30
0.0
 11
185.5771019868
 21
77.1000522567
 31
0.0
  0
LINE
  5
C3
330
1F
100
AcDbEntity
  8
0
  6
Continuous
 62
     7
370
    15
100
AcDbLine
 10
186.7171019868
 20
77.1000522567
 30
0.0
 11
186.7671019868
 21
77.2200522567
 31
0.0
  0
LINE
  5
C4
330
1F
100
AcDbEntity
  8
0
  6
Continuous
 62
     7
370
    15
100
AcDbLine
 10
185.5271019868
 20
77.7400522567
 30
0.0
 11
185.5271019868
 21
77.2200522567
 31
0.0
  0
LINE
  5
C5
330
1F
100
AcDbEntity
  8
0
  6
Continuous
 62
     7
370
    15
100
AcDbLine
 10
186.7671019868
 20
77.2200522567
 30
0.0
 11
186.7671019868
 21
77.7400522567
 31
0.0
  0
ARC
  5
C6
330
1F
100
AcDbEntity
  8
0
  6
Continuous
 62
     7
370
    15
100
AcDbCircle
 10
194.0071019868
 20
77.8600522567
 30
0.0
 40
0.0600000000000023
100
AcDbArc
 50
199.4712206332
 51
270.0
  0
ARC
  5
C7
330
1F
100
AcDbEntity
  8
0
  6
Continuous
 62
     7
370
    15
100
AcDbCircle
 10
195.3271019868
 20
77.8600522567
 30
0.0
 40
0.0600000000000055
100
AcDbArc
 50
270.0
 51
340.5287793669
  0
ARC
  5
C8
330
1F
100
AcDbEntity
  8
0
  6
Continuous
 62
     7
370
    15
100
AcDbCircle
 10
193.9871019868
 20
77.7400522567
 30
0.0
 40
0.0600000000000023
100
AcDbArc
 50
0.0
 51
90.0
  0
ARC
  5
C9
330
1F
100
AcDbEntity
  8
0
  6
Continuous
 62
     7
370
    15
100
AcDbCircle
 10
195.3471019868
 20
77.7400522567
 30
0.0
 40
0.0600000000000023
100
AcDbArc
 50
90.0
 51
180.0
  0
LINE
  5
CA
330
1F
100
AcDbEntity
  8
0
  6
Continuous
 62
     7
370
    15
100
AcDbLine
 10
194.0471019868
 20
77.7400522567
 30
0.0
 11
194.0471019868
 21
77.2200522567
 31
0.0
  0
LINE
  5
CB
330
1F
100
AcDbEntity
  8
0
  6
Continuous
 62
     7
370
    15
100
AcDbLine
 10
195.2871019868
 20
77.2200522567
 30
0.0
 11
195.2871019868
 21
77.7400522567
 31
0.0
  0
LINE
  5
CC
330
1F
100
AcDbEntity
  8
0
  6
Continuous
 62
     7
370
    15
100
AcDbLine
 10
194.0471019868
 20
77.2200522567
 30
0.0
 11
194.0971019868
 21
77.1000522567
 31
0.0
  0
LINE
  5
CD
330
1F
100
AcDbEntity
  8
0
  6
Continuous
 62
     7
370
    15
100
AcDbLine
 10
195.2371019868
 20
77.1000522567
 30
0.0
 11
195.2871019868
 21
77.2200522567
 31
0.0
  0
ARC
  5
CE
330
1F
100
AcDbEntity
  8
0
  6
Continuous
 62
     7
370
    15
100
AcDbCircle
 10
200.4071019868
 20
77.8600522567
 30
0.0
 40
0.0600000000000055
100
AcDbArc
 50
199.4712206331
 51
270.0
  0
ARC
  5
CF
330
1F
100
AcDbEntity
  8
0
  6
Continuous
 62
     7
370
    15
100
AcDbCircle
 10
201.7271019868
 20
77.8600522567
 30
0.0
 40
0.0600000000000023
100
AcDbArc
 50
270.0
 51
340.5287793668
  0
ARC
  5
D0
330
1F
100
AcDbEntity
  8
0
  6
Continuous
 62
     7
370
    15
100
AcDbCircle
 10
200.3871019868
 20
77.7400522567
 30
0.0
 40
0.0600000000000023
100
AcDbArc
 50
0.0
 51
90.0
  0
ARC
  5
D1
330
1F
100
AcDbEntity
  8
0
  6
Continuous
 62
     7
370
    15
100
AcDbCircle
 10
201.7471019868
 20
77.7400522567
 30
0.0
 40
0.0600000000000023
100
AcDbArc
 50
90.0
 51
180.0
  0
LINE
  5
D2
330
1F
100
AcDbEntity
  8
0
  6
Continuous
 62
     7
370
    15
100
AcDbLine
 10
200.4471019868
 20
77.2200522567
 30
0.0
 11
200.4971019868
 21
77.1000522567
 31
0.0
  0
LINE
  5
D3
330
1F
100
AcDbEntity
  8
0
  6
Continuous
 62
     7
370
    15
100
AcDbLine
 10
201.6371019868
 20
77.1000522567
 30
0.0
 11
201.6871019868
 21
77.2200522567
 31
0.0
  0
LINE
  5
D4
330
1F
100
AcDbEntity
  8
0
  6
Continuous
 62
     7
370
    15
100
AcDbLine
 10
200.4471019868
 20
77.7400522567
 30
0.0
 11
200.4471019868
 21
77.2200522567
 31
0.0
  0
LINE
  5
D5
330
1F
100
AcDbEntity
  8
0
  6
Continuous
 62
     7
370
    15
100
AcDbLine
 10
201.6871019868
 20
77.2200522567
 30
0.0
 11
201.6871019868
 21
77.7400522567
 31
0.0
  0
ARC
  5
D6
330
1F
100
AcDbEntity
  8
0
  6
Continuous
 62
     7
370
    15
100
AcDbCircle
 10
132.8671019868
 20
77.8600522567
 30
0.0
 40
0.0600000000000055
100
AcDbArc
 50
199.4712206331
 51
270.0
  0
ARC
  5
D7
330
1F
100
AcDbEntity
  8
0
  6
Continuous
 62
     7
370
    15
100
AcDbCircle
 10
134.1871019868
 20
77.8600522567
 30
0.0
 40
0.0600000000000055
100
AcDbArc
 50
270.0
 51
340.5287793669
  0
ARC
  5
D8
330
1F
100
AcDbEntity
  8
0
  6
Continuous
 62
     7
370
    15
100
AcDbCircle
 10
132.8471019868
 20
77.7400522567
 30
0.0
 40
0.0600000000000023
100
AcDbArc
 50
0.0
 51
90.0
  0
ARC
  5
D9
330
1F
100
AcDbEntity
  8
0
  6
Continuous
 62
     7
370
    15
100
AcDbCircle
 10
134.2071019868
 20
77.7400522567
 30
0.0
 40
0.0600000000000023
100
AcDbArc
 50
90.0
 51
180.0
  0
LINE
  5
DA
330
1F
100
AcDbEntity
  8
0
  6
Continuous
 62
     7
370
    15
100
AcDbLine
 10
132.9071019868
 20
77.7400522567
 30
0.0
 11
132.9071019868
 21
77.2200522567
 31
0.0
  0
LINE
  5
DB
330
1F
100
AcDbEntity
  8
0
  6
Continuous
 62
     7
370
    15
100
AcDbLine
 10
134.1471019868
 20
77.2200522567
 30
0.0
 11
134.1471019868
 21
77.7400522567
 31
0.0
  0
LINE
  5
DC
330
1F
100
AcDbEntity
  8
0
  6
Continuous
 62
     7
370
    15
100
AcDbLine
 10
132.9071019868
 20
77.2200522567
 30
0.0
 11
132.9571019868
 21
77.1000522567
 31
0.0
  0
LINE
  5
DD
330
1F
100
AcDbEntity
  8
0
  6
Continuous
 62
     7
370
    15
100
AcDbLine
 10
134.0971019868
 20
77.1000522567
 30
0.0
 11
134.1471019868
 21
77.2200522567
 31
0.0
  0
ARC
  5
DE
330
1F
100
AcDbEntity
  8
0
  6
Continuous
 62
     7
370
    15
100
AcDbCircle
 10
100.2921019868
 20
72.7913017563
 30
0.0
 40
1.600000000000009
100
AcDbArc
 50
180.0
 51
257.364374907
  0
LINE
  5
DF
330
1F
100
AcDbEntity
  8
0
  6
Continuous
 62
     7
370
    15
100
AcDbLine
 10
98.6921019868
 20
73.0200522567
 30
0.0
 11
98.6921019868
 21
72.7913017563
 31
0.0
  0
LINE
  5
E0
330
1F
100
AcDbEntity
  8
0
  6
Continuous
 62
     7
370
    15
100
AcDbLine
 10
98.6921019868
 20
75.4200522567
 30
0.0
 11
98.6921019868
 21
74.1000522567
 31
0.0
  0
LINE
  5
E1
330
1F
100
AcDbEntity
  8
0
  6
Continuous
 62
     7
370
    15
100
AcDbLine
 10
98.8971019868
 20
76.4900522567
 30
0.0
 11
98.8971019868
 21
75.4200522567
 31
0.0
  0
LINE
  5
E2
330
1F
100
AcDbEntity
  8
0
  6
Continuous
 62
     7
370
    15
100
AcDbLine
 10
99.0821019868
 20
77.0800522567
 30
0.0
 11
99.0821019868
 21
76.4900522567
 31
0.0
  0
ARC
  5
E3
330
1F
100
AcDbEntity
  8
0
  6
Continuous
 62
     7
370
    15
100
AcDbCircle
 10
244.2483588815
 20
89.7325183461
 30
0.0
 40
0.7200000000390997
100
AcDbArc
 50
284.3742354299
 51
309.5791235985
  0
ARC
  5
E4
330
1F
100
AcDbEntity
  8
0
  6
Continuous
 62
     7
370
    15
100
AcDbCircle
 10
244.6824134564
 20
82.6224283059
 30
0.0
 40
0.8000000007206789
100
AcDbArc
 50
256.2993793871
 51
271.7684665275
  0
LINE
  5
E5
330
1F
100
AcDbEntity
  8
0
  6
Continuous
 62
     7
370
    15
100
AcDbLine
 10
243.8837275474
 20
81.9937067042
 30
0.0
 11
244.4929345205
 21
81.8451910615
 31
0.0
  0
LINE
  5
E6
330
1F
100
AcDbEntity
  8
0
  6
Continuous
 62
     7
370
    15
100
AcDbLine
 10
244.0540909721
 20
89.4501280794
 30
0.0
 11
243.4871019868
 21
90.322351015
 31
0.0
  0
ARC
  5
E7
330
1F
100
AcDbEntity
  8
0
  6
Continuous
 62
     7
370
    15
100
AcDbCircle
 10
245.3955697812
 20
90.3221570961
 30
0.0
 40
1.600000000335424
100
AcDbArc
 50
213.0259029438
 51
239.9977841758
  0
LINE
  5
E8
330
1F
100
AcDbEntity
  8
0
  6
Continuous
 62
     7
370
    15
100
AcDbLine
 10
244.7071019868
 20
88.8721175482
 30
0.0
 11
244.5955161942
 21
88.9365473896
 31
0.0
  0
ARC
  5
E9
330
1F
100
AcDbEntity
  8
0
  6
Continuous
 62
     7
370
    15
100
AcDbCircle
 10
243.9671019868
 20
87.0100522563
 30
0.0
 40
0.5
100
AcDbArc
 50
259.0768827269
 51
0.0
  0
ARC
  5
EA
330
1F
100
AcDbEntity
  8
0
  6
Continuous
 62
     7
370
    15
100
AcDbCircle
 10
243.9671019868
 20
87.0100522563
 30
0.0
 40
0.5
100
AcDbArc
 50
0.0
 51
106.360531344
  0
ARC
  5
EB
330
1F
100
AcDbEntity
  8
0
  6
Continuous
 62
     7
370
    15
100
AcDbCircle
 10
244.6824134563
 20
82.6224283059
 30
0.0
 40
0.5500000000205318
100
AcDbArc
 50
87.4272289583
 51
180.0
  0
ARC
  5
EC
330
1F
100
AcDbEntity
  8
0
  6
Continuous
 62
     7
370
    15
100
AcDbCircle
 10
244.6824134563
 20
82.6224283059
 30
0.0
 40
0.5500000000205318
100
AcDbArc
 50
180.0
 51
272.5727710417
  0
ARC
  5
ED
330
1F
100
AcDbEntity
  8
0
  6
Continuous
 62
     7
370
    15
100
AcDbCircle
 10
244.6824134564
 20
82.6224283059
 30
0.0
 40
0.3100000000000023
100
AcDbArc
 50
180.0
 51
274.5678974093
  0
ARC
  5
EE
330
1F
100
AcDbEntity
  8
0
  6
Continuous
 62
     7
370
    15
100
AcDbCircle
 10
244.6824134564
 20
82.6224283059
 30
0.0
 40
0.3100000000000023
100
AcDbArc
 50
85.4321025907
 51
180.0
  0
LINE
  5
EF
330
1F
100
AcDbEntity
  8
0
  6
Continuous
 62
     7
370
    15
100
AcDbLine
 10
234.8671019868
 20
77.6950522563
 30
0.0
 11
242.4671019868
 21
77.6950522563
 31
0.0
  0
LINE
  5
F0
330
1F
100
AcDbEntity
  8
0
  6
Continuous
 62
     7
370
    15
100
AcDbLine
 10
242.4671019868
 20
77.6800522563
 30
0.0
 11
242.4671019868
 21
77.6950522563
 31
0.0
  0
LINE
  5
F1
330
1F
100
AcDbEntity
  8
0
  6
Continuous
 62
     7
370
    15
100
AcDbLine
 10
234.8671019868
 20
77.6800522563
 30
0.0
 11
242.4671019868
 21
77.6800522563
 31
0.0
  0
LINE
  5
F2
330
1F
100
AcDbEntity
  8
0
  6
Continuous
 62
     7
370
    15
100
AcDbLine
 10
238.8671019868
 20
77.6800522563
 30
0.0
 11
238.8671019868
 21
77.6400522563
 31
0.0
  0
LINE
  5
F3
330
1F
100
AcDbEntity
  8
0
  6
Continuous
 62
     7
370
    15
100
AcDbLine
 10
250.704441939
 20
209.7398938307
 30
0.0
 11
250.6953788611
 21
209.7356676481
 31
0.0
  0
LINE
  5
F4
330
1F
100
AcDbEntity
  8
0
  6
Continuous
 62
     7
370
    15
100
AcDbLine
 10
250.704441939
 20
209.7398938307
 30
0.0
 11
252.0693892538
 21
206.8127548678
 31
0.0
  0
LINE
  5
F5
330
1F
100
AcDbEntity
  8
0
  6
Continuous
 62
     7
370
    15
100
AcDbLine
 10
250.8904982066
 20
209.3882189088
 30
0.0
 11
252.0879583793
 21
206.8202572815
 31
0.0
  0
LINE
  5
F6
330
1F
100
AcDbEntity
  8
0
  6
Continuous
 62
     7
370
    15
100
AcDbLine
 10
250.8693672935
 20
209.4335342981
 30
0.0
 11
250.8904982066
 21
209.3882189088
 31
0.0
  0
LINE
  5
F7
330
1F
100
AcDbEntity
  8
0
  6
Continuous
 62
     7
370
    15
100
AcDbLine
 10
94.4094360429
 20
93.0000522566
 30
0.0
 11
94.4294360429
 21
93.0000522566
 31
0.0
  0
LINE
  5
F8
330
1F
100
AcDbEntity
  8
0
  6
Continuous
 62
     7
370
    15
100
AcDbLine
 10
94.4094360429
 20
97.8000522566
 30
0.0
 11
94.4294360429
 21
97.8000522566
 31
0.0
  0
LINE
  5
F9
330
1F
100
AcDbEntity
  8
0
  6
Continuous
 62
     7
370
    15
100
AcDbLine
 10
94.4094360429
 20
93.0000522566
 30
0.0
 11
94.4094360429
 21
97.8000522566
 31
0.0
  0
LINE
  5
FA
330
1F
100
AcDbEntity
  8
0
  6
Continuous
 62
     7
370
    15
100
AcDbLine
 10
94.3894360429
 20
93.3526957599
 30
0.0
 11
94.4094360429
 21
93.3526957599
 31
0.0
  0
LINE
  5
FB
330
1F
100
AcDbEntity
  8
0
  6
Continuous
 62
     7
370
    15
100
AcDbLine
 10
94.3894360429
 20
93.3526957599
 30
0.0
 11
94.3894360429
 21
93.5026957599
 31
0.0
  0
LINE
  5
FC
330
1F
100
AcDbEntity
  8
0
  6
Continuous
 62
     7
370
    15
100
AcDbLine
 10
94.3894360429
 20
93.5026957599
 30
0.0
 11
94.3894360429
 21
97.4026957599
 31
0.0
  0
LINE
  5
FD
330
1F
100
AcDbEntity
  8
0
  6
Continuous
 62
     7
370
    15
100
AcDbLine
 10
94.3894360429
 20
97.4026957599
 30
0.0
 11
94.3894360429
 21
97.4526957599
 31
0.0
  0
LINE
  5
FE
330
1F
100
AcDbEntity
  8
0
  6
Continuous
 62
     7
370
    15
100
AcDbLine
 10
254.985525247
 20
169.1155223105
 30
0.0
 11
254.9827391968
 21
169.1155223105
 31
0.0
  0
LINE
  5
FF
330
1F
100
AcDbEntity
  8
0
  6
Continuous
 62
     7
370
    15
100
AcDbLine
 10
254.985525247
 20
169.1155223105
 30
0.0
 11
254.985525247
 21
169.1039229572
 31
0.0
  0
LINE
  5
100
330
1F
100
AcDbEntity
  8
0
  6
Continuous
 62
     7
370
    15
100
AcDbLine
 10
94.4194360429
 20
102.8000522566
 30
0.0
 11
94.4194360429
 21
107.8000522566
 31
0.0
  0
LINE
  5
101
330
1F
100
AcDbEntity
  8
0
  6
Continuous
 62
     7
370
    15
100
AcDbLine
 10
94.4194360429
 20
107.8000522566
 30
0.0
 11
94.4294360429
 21
107.8000522566
 31
0.0
  0
LINE
  5
102
330
1F
100
AcDbEntity
  8
0
  6
Continuous
 62
     7
370
    15
100
AcDbLine
 10
94.4194360429
 20
102.8000522566
 30
0.0
 11
94.4294360429
 21
102.8000522566
 31
0.0
  0
LINE
  5
103
330
1F
100
AcDbEntity
  8
0
  6
Continuous
 62
     7
370
    15
100
AcDbLine
 10
250.6953788611
 20
209.7356676481
 30
0.0
 11
250.6863157832
 21
209.7314414655
 31
0.0
  0
LINE
  5
104
330
1F
100
AcDbEntity
  8
0
  6
Continuous
 62
     7
370
    15
100
AcDbLine
 10
250.6953788611
 20
209.7356676481
 30
0.0
 11
252.0601046911
 21
206.809003661
 31
0.0
  0
LINE
  5
105
330
1F
100
AcDbEntity
  8
0
  6
Continuous
 62
     7
370
    15
100
AcDbLine
 10
254.975525247
 20
169.3155223105
 30
0.0
 11
254.965525247
 21
169.3155223105
 31
0.0
  0
LINE
  5
106
330
1F
100
AcDbEntity
  8
0
  6
Continuous
 62
     7
370
    15
100
AcDbLine
 10
254.965525247
 20
169.3155223105
 30
0.0
 11
254.965525247
 21
169.1831237885
 31
0.0
  0
LINE
  5
107
330
1F
100
AcDbEntity
  8
0
  6
Continuous
 62
     7
370
    15
100
AcDbLine
 10
254.975525247
 20
169.3155223105
 30
0.0
 11
254.975525247
 21
169.1446581825
 31
0.0
  0
LINE
  5
108
330
1F
100
AcDbEntity
  8
0
  6
Continuous
 62
     7
370
    15
100
AcDbLine
 10
257.177775428
 20
204.3287870324
 30
0.0
 11
257.1307866872
 21
204.4295547121
 31
0.0
  0
LINE
  5
109
330
1F
100
AcDbEntity
  8
0
  6
Continuous
 62
     7
370
    15
100
AcDbLine
 10
261.9486348711
 20
194.0976459399
 30
0.0
 11
261.8915814057
 21
194.2199974912
 31
0.0
  0
LINE
  5
10A
330
1F
100
AcDbEntity
  8
0
  6
Continuous
 62
     7
370
    15
100
AcDbLine
 10
260.7629276168
 20
192.8734493614
 30
0.0
 11
261.1046123315
 21
193.2384857338
 31
0.0
  0
LINE
  5
10B
330
1F
100
AcDbEntity
  8
0
  6
Continuous
 62
     7
370
    15
100
AcDbLine
 10
260.7629276333
 20
192.873449346
 30
0.0
 11
260.7629276168
 21
192.8734493614
 31
0.0
  0
LINE
  5
10C
330
1F
100
AcDbEntity
  8
0
  6
Continuous
 62
     7
370
    15
100
AcDbLine
 10
261.5487480883
 20
193.7130839048
 30
0.0
 11
261.5487481065
 21
193.7130838877
 31
0.0
  0
LINE
  5
10D
330
1F
100
AcDbEntity
  8
0
  6
Continuous
 62
     7
370
    15
100
AcDbLine
 10
261.1729450544
 20
193.3114969581
 30
0.0
 11
261.5487480732
 21
193.7130839189
 31
0.0
  0
LINE
  5
10E
330
1F
100
AcDbEntity
  8
0
  6
Continuous
 62
     7
370
    15
100
AcDbLine
 10
261.1729450773
 20
193.3114969366
 30
0.0
 11
261.1729450662
 21
193.3114969471
 31
0.0
  0
LINE
  5
10F
330
1F
100
AcDbEntity
  8
0
  6
Continuous
 62
     7
370
    15
100
AcDbLine
 10
260.4741139064
 20
192.5273631868
 30
0.0
 11
260.423399715
 21
192.6361201212
 31
0.0
  0
LINE
  5
110
330
1F
100
AcDbEntity
  8
0
  6
Continuous
 62
     7
370
    15
100
AcDbLine
 10
255.0307906952
 20
204.2006074838
 30
0.0
 11
254.9800765038
 21
204.3093644183
 31
0.0
  0
SPLINE
  5
111
330
1F
100
AcDbEntity
  8
0
  6
Continuous
 62
     7
370
    15
100
AcDbSpline
210
0.0
220
0.0
230
1.0
 70
     8
 71
     3
 72
    12
 73
     8
 74
     0
 42
0.00000001
 43
0.00000001
 12
1.0
 22
0.0
 32
0.0
 13
1.0
 23
0.0
 33
0.0
 40
0.0
 40
0.0
 40
0.0
 40
0.0
 40
0.2238925571850463
 40
0.4477848984197556
 40
0.6716824862033798
 40
0.8955821585469957
 40
1.0
 40
1.0
 40
1.0
 40
1.0
 10
257.2775498038414
 20
204.4313056259141
 30
0.0
 10
257.2719762516152
 20
204.4312385271636
 30
0.0
 10
257.2608291525387
 20
204.4311043297271
 30
0.0
 10
257.2464368593332
 20
204.4309836472491
 30
0.0
 10
257.2359583658072
 20
204.4309179090883
 30
0.0
 10
257.2312912969585
 20
204.4308990713919
 30
0.0
 10
257.2309015647724
 20
204.4309010818516
 30
0.0
 10
257.2307776146572
 20
204.4309017212566
 30
0.0
  0
LINE
  5
112
330
1F
100
AcDbEntity
  8
0
  6
Continuous
 62
     7
370
    15
100
AcDbLine
 10
257.2775498038
 20
204.4313056259
 30
0.0
 11
261.096515909
 21
204.4729231343
 31
0.0
  0
LINE
  5
113
330
1F
100
AcDbEntity
  8
0
  6
Continuous
 62
     7
370
    15
100
AcDbLine
 10
261.096515909
 20
204.4729231343
 30
0.0
 11
261.3922431804
 21
204.476598897
 31
0.0
  0
LINE
  5
114
330
1F
100
AcDbEntity
  8
0
  6
Continuous
 62
     7
370
    15
100
AcDbLine
 10
261.8491060224
 20
203.7758925774
 30
0.0
 11
264.4807778322
 21
198.1322541686
 31
0.0
  0
LINE
  5
115
330
1F
100
AcDbEntity
  8
0
  6
Continuous
 62
     7
370
    15
100
AcDbLine
 10
261.5764340922
 20
204.3606394187
 30
0.0
 11
261.8491060224
 21
203.7758925774
 31
0.0
  0
SPLINE
  5
116
330
1F
100
AcDbEntity
  8
0
  6
Continuous
 62
     7
370
    15
100
AcDbSpline
210
0.0
220
0.0
230
1.0
 70
     8
 71
     3
 72
    11
 73
     7
 74
     0
 42
0.00000001
 43
0.00000001
 12
1.0
 22
0.0
 32
0.0
 13
1.0
 23
0.0
 33
0.0
 40
0.0
 40
0.0
 40
0.0
 40
0.0
 40
0.2933118760928533
 40
0.5865991201419796
 40
0.8805021461503123
 40
1.0
 40
1.0
 40
1.0
 40
1.0
 10
261.392243180364
 20
204.4765988969735
 30
0.0
 10
261.4147833541011
 20
204.474664812101
 30
0.0
 10
261.4598618086734
 20
204.4707968047786
 30
0.0
 10
261.5200131046147
 20
204.4369559302145
 30
0.0
 10
261.557702716534
 20
204.3968358347954
 30
0.0
 10
261.5722337459239
 20
204.3687561466753
 30
0.0
 10
261.5764340921518
 20
204.3606394187471
 30
0.0
  0
LINE
  5
117
330
1F
100
AcDbEntity
  8
0
  6
Continuous
 62
     7
370
    15
100
AcDbLine
 10
264.4807778322
 20
198.1322541686
 30
0.0
 11
264.7585013708
 21
197.5366741182
 31
0.0
  0
LINE
  5
118
330
1F
100
AcDbEntity
  8
0
  6
Continuous
 62
     7
370
    15
100
AcDbLine
 10
261.5502020013
 20
193.7117235304
 30
0.0
 11
261.5502020188
 21
193.7117235141
 31
0.0
  0
LINE
  5
119
330
1F
100
AcDbEntity
  8
0
  6
Continuous
 62
     7
370
    15
100
AcDbLine
 10
261.1743992708
 20
193.3101359791
 30
0.0
 11
261.1743992596
 21
193.3101359895
 31
0.0
  0
LINE
  5
11A
330
1F
100
AcDbEntity
  8
0
  6
Continuous
 62
     7
370
    15
100
AcDbLine
 10
261.1743993214
 20
193.3101360792
 30
0.0
 11
261.5502019278
 21
193.7117234519
 31
0.0
  0
LINE
  5
11B
330
1F
100
AcDbEntity
  8
0
  6
Continuous
 62
     7
370
    15
100
AcDbLine
 10
261.5502020013
 20
193.7117235304
 30
0.0
 11
261.5487480732
 21
193.7130839189
 31
0.0
  0
LINE
  5
11C
330
1F
100
AcDbEntity
  8
0
  6
Continuous
 62
     7
370
    15
100
AcDbLine
 10
261.1743992596
 20
193.3101359895
 30
0.0
 11
261.1729450662
 21
193.3114969471
 31
0.0
  0
LINE
  5
11D
330
1F
100
AcDbEntity
  8
0
  6
Continuous
 62
     7
370
    15
100
AcDbLine
 10
260.7643820875
 20
192.8720878293
 30
0.0
 11
260.764382071
 21
192.8720878447
 31
0.0
  0
LINE
  5
11E
330
1F
100
AcDbEntity
  8
0
  6
Continuous
 62
     7
370
    15
100
AcDbLine
 10
260.7643821446
 20
192.8720879233
 30
0.0
 11
261.1060665704
 21
193.2371246788
 31
0.0
  0
LINE
  5
11F
330
1F
100
AcDbEntity
  8
0
  6
Continuous
 62
     7
370
    15
100
AcDbLine
 10
261.1060665704
 20
193.2371246788
 30
0.0
 11
261.1060665873
 21
193.237124663
 31
0.0
  0
LINE
  5
120
330
1F
100
AcDbEntity
  8
0
  6
Continuous
 62
     7
370
    15
100
AcDbLine
 10
260.8386285863
 20
192.9395495959
 30
0.0
 11
260.8386285606
 21
192.9395496201
 31
0.0
  0
LINE
  5
121
330
1F
100
AcDbEntity
  8
0
  6
Continuous
 62
     7
370
    15
100
AcDbLine
 10
261.0437454811
 20
193.1584722001
 30
0.0
 11
261.0437454962
 21
193.158472186
 31
0.0
  0
LINE
  5
122
330
1F
100
AcDbEntity
  8
0
  6
Continuous
 62
     7
370
    15
100
AcDbLine
 10
260.8386285606
 20
192.9395496201
 30
0.0
 11
261.0437454811
 21
193.1584722001
 31
0.0
  0
LINE
  5
123
330
1F
100
AcDbEntity
  8
0
  6
Continuous
 62
     7
370
    15
100
AcDbLine
 10
261.1060665704
 20
193.2371246788
 30
0.0
 11
261.1046123315
 21
193.2384857338
 31
0.0
  0
LINE
  5
124
330
1F
100
AcDbEntity
  8
0
  6
Continuous
 62
     7
370
    15
100
AcDbLine
 10
260.764382071
 20
192.8720878447
 30
0.0
 11
260.7629276168
 21
192.8734493614
 31
0.0
  0
LINE
  5
125
330
1F
100
AcDbEntity
  8
0
  6
Continuous
 62
     7
370
    15
100
AcDbLine
 10
261.1060666384
 20
193.2371246151
 30
0.0
 11
261.1046123995
 21
193.2384856701
 31
0.0
  0
LINE
  5
126
330
1F
100
AcDbEntity
  8
0
  6
Continuous
 62
     7
370
    15
100
AcDbLine
 10
261.5502020721
 20
193.7117234641
 30
0.0
 11
261.5487481439
 21
193.7130838526
 31
0.0
  0
LINE
  5
127
330
1F
100
AcDbEntity
  8
0
  6
Continuous
 62
     7
370
    15
100
AcDbLine
 10
256.530597466
 20
199.3279203761
 30
0.0
 11
257.6547620423
 21
196.9171416626
 31
0.0
  0
LINE
  5
128
330
1F
100
AcDbEntity
  8
0
  6
Continuous
 62
     7
370
    15
100
AcDbLine
 10
255.7989798149
 20
199.2405383839
 30
0.0
 11
257.1175487915
 21
196.4128580883
 31
0.0
  0
ARC
  5
129
330
1F
100
AcDbEntity
  8
0
  6
Continuous
 62
     7
370
    15
100
AcDbCircle
 10
250.9219558078
 20
209.8413222135
 30
0.0
 40
0.4200000000000468
100
AcDbArc
 50
115.0
 51
205.0
  0
LINE
  5
12A
330
1F
100
AcDbEntity
  8
0
  6
Continuous
 62
     7
370
    15
100
AcDbLine
 10
253.2821202199
 20
211.4053036794
 30
0.0
 11
253.2808658168
 21
211.4079937556
 31
0.0
  0
LINE
  5
12B
330
1F
100
AcDbEntity
  8
0
  6
Continuous
 62
     7
370
    15
100
AcDbLine
 10
244.062045712
 20
173.8400522567
 30
0.0
 11
243.662045712
 21
173.8400522567
 31
0.0
  0
LINE
  5
12C
330
1F
100
AcDbEntity
  8
0
  6
Continuous
 62
     7
370
    15
100
AcDbLine
 10
243.662045712
 20
173.8400522567
 30
0.0
 11
243.662045712
 21
174.0000522567
 31
0.0
  0
LINE
  5
12D
330
1F
100
AcDbEntity
  8
0
  6
Continuous
 62
     7
370
    15
100
AcDbLine
 10
243.662045712
 20
174.0000522567
 30
0.0
 11
244.062045712
 21
174.0000522567
 31
0.0
  0
LINE
  5
12E
330
1F
100
AcDbEntity
  8
0
  6
Continuous
 62
     7
370
    15
100
AcDbLine
 10
253.2682179685
 20
211.3877871739
 30
0.0
 11
253.6307410833
 21
211.5568344786
 31
0.0
  0
LINE
  5
12F
330
1F
100
AcDbEntity
  8
0
  6
Continuous
 62
     7
370
    15
100
AcDbLine
 10
253.6307410833
 20
211.5568344786
 30
0.0
 11
253.6983600052
 21
211.4118252326
 31
0.0
  0
LINE
  5
130
330
1F
100
AcDbEntity
  8
0
  6
Continuous
 62
     7
370
    15
100
AcDbLine
 10
253.6983600052
 20
211.4118252326
 30
0.0
 11
253.3358368904
 21
211.2427779279
 31
0.0
  0
ARC
  5
131
330
1F
100
AcDbEntity
  8
0
  6
Continuous
 62
     7
370
    15
100
AcDbCircle
 10
255.7879051903
 20
176.0000522567
 30
0.0
 40
2.16000000000001
100
AcDbArc
 50
270.0
 51
335.0
  0
ARC
  5
132
330
1F
100
AcDbEntity
  8
0
  6
Continuous
 62
     7
370
    15
100
AcDbCircle
 10
255.7879051903
 20
176.0000522567
 30
0.0
 40
2.0
100
AcDbArc
 50
270.0
 51
335.0
  0
ARC
  5
133
330
1F
100
AcDbEntity
  8
0
  6
Continuous
 62
     7
370
    15
100
AcDbCircle
 10
250.91289273
 20
209.8370960309
 30
0.0
 40
0.2500000000000171
100
AcDbArc
 50
115.0
 51
205.0
  0
ARC
  5
134
330
1F
100
AcDbEntity
  8
0
  6
Continuous
 62
     7
370
    15
100
AcDbCircle
 10
250.91289273
 20
209.8370960309
 30
0.0
 40
0.4100000000000004
100
AcDbArc
 50
115.0
 51
205.0
  0
LINE
  5
135
330
1F
100
AcDbEntity
  8
0
  6
Continuous
 62
     7
370
    15
100
AcDbLine
 10
250.8072381645
 20
210.0636729777
 30
0.0
 11
253.3358368904
 21
211.2427779279
 31
0.0
  0
LINE
  5
136
330
1F
100
AcDbEntity
  8
0
  6
Continuous
 62
     7
370
    15
100
AcDbLine
 10
250.7396192427
 20
210.2086822236
 30
0.0
 11
253.2682179685
 21
211.3877871739
 31
0.0
  0
LINE
  5
137
330
1F
100
AcDbEntity
  8
0
  6
Continuous
 62
     7
370
    15
100
AcDbLine
 10
257.6005207644
 20
175.1548157332
 30
0.0
 11
261.7226804625
 21
183.9948157332
 31
0.0
  0
LINE
  5
138
330
1F
100
AcDbEntity
  8
0
  6
Continuous
 62
     7
370
    15
100
AcDbLine
 10
257.7455300103
 20
175.0871968113
 30
0.0
 11
261.8676897084
 21
183.9271968113
 31
0.0
  0
ARC
  5
139
330
1F
100
AcDbEntity
  8
0
  6
Continuous
 62
     7
370
    15
100
AcDbCircle
 10
259.9100648884
 20
184.8400522567
 30
0.0
 40
2.159999999999958
100
AcDbArc
 50
335.0
 51
25.0
  0
ARC
  5
13A
330
1F
100
AcDbEntity
  8
0
  6
Continuous
 62
     7
370
    15
100
AcDbCircle
 10
259.9100648884
 20
184.8400522567
 30
0.0
 40
1.999999999999975
100
AcDbArc
 50
335.0
 51
25.0
  0
LINE
  5
13B
330
1F
100
AcDbEntity
  8
0
  6
Continuous
 62
     7
370
    15
100
AcDbLine
 10
261.8676897084
 20
185.752907702
 30
0.0
 11
250.6863157832
 21
209.7314414655
 31
0.0
  0
LINE
  5
13C
330
1F
100
AcDbEntity
  8
0
  6
Continuous
 62
     7
370
    15
100
AcDbLine
 10
261.7226804625
 20
185.6852887801
 30
0.0
 11
250.5413065373
 21
209.6638225436
 31
0.0
  0
LINE
  5
13D
330
1F
100
AcDbEntity
  8
0
  6
Continuous
 62
     7
370
    15
100
AcDbLine
 10
244.062045712
 20
174.0000522567
 30
0.0
 11
255.7879051903
 21
174.0000522567
 31
0.0
  0
LINE
  5
13E
330
1F
100
AcDbEntity
  8
0
  6
Continuous
 62
     7
370
    15
100
AcDbLine
 10
244.062045712
 20
173.8400522567
 30
0.0
 11
255.7879051903
 21
173.8400522567
 31
0.0
  0
LINE
  5
13F
330
1F
100
AcDbEntity
  8
0
  6
Continuous
 62
     7
370
    15
100
AcDbLine
 10
253.6392673611
 20
211.5751191404
 30
0.0
 11
253.6307410833
 21
211.5568344786
 31
0.0
  0
ARC
  5
140
330
1F
100
AcDbEntity
  8
0
  6
Continuous
 62
     7
370
    15
100
AcDbCircle
 10
253.1794005485
 20
211.6773843064
 30
0.0
 40
0.300000000000021
100
AcDbArc
 50
295.0
 51
311.9080434755
  0
LINE
  5
141
330
1F
100
AcDbEntity
  8
0
  6
Continuous
 62
     7
370
    15
100
AcDbLine
 10
254.9988138598
 20
202.8494610787
 30
0.0
 11
259.3678072059
 21
193.4801246123
 31
0.0
  0
SPLINE
  5
142
330
1F
100
AcDbEntity
  8
0
  6
Continuous
 62
     7
370
    15
100
AcDbSpline
210
0.0
220
0.0
230
1.0
 70
    24
 71
     3
 72
    11
 73
     7
 74
     0
 42
0.00000001
 43
0.00000001
 12
1.0
 22
0.0
 32
0.0
 13
1.0
 23
0.0
 33
0.0
 40
0.0
 40
0.0
 40
0.0
 40
0.0
 40
0.1499516226907197
 40
0.4331749578253947
 40
0.7165923401617146
 40
1.0
 40
1.0
 40
1.0
 40
1.0
 10
259.681241170152
 20
192.8079633068649
 30
0.0
 10
259.6612165050529
 20
192.8509063397505
 30
0.0
 10
259.6033699589199
 20
192.9749586582605
 30
0.0
 10
259.5121023377108
 20
193.1706827035617
 30
0.0
 10
259.4205490406005
 20
193.3670193828105
 30
0.0
 10
259.3853876164352
 20
193.4424233002678
 30
0.0
 10
259.3678072059067
 20
193.4801246123115
 30
0.0
  0
SPLINE
  5
143
330
1F
100
AcDbEntity
  8
0
  6
Continuous
 62
     7
370
    15
100
AcDbSpline
210
0.0
220
0.0
230
1.0
 70
    24
 71
     3
 72
    11
 73
     7
 74
     0
 42
0.00000001
 43
0.00000001
 12
1.0
 22
0.0
 32
0.0
 13
1.0
 23
0.0
 33
0.0
 40
0.0
 40
0.0
 40
0.0
 40
0.0
 40
0.1499515950756916
 40
0.4331749432231846
 40
0.7165923323728162
 40
1.0
 40
1.0
 40
1.0
 40
1.0
 10
254.9988138598081
 20
202.849461078679
 30
0.0
 10
254.9903821567262
 20
202.8675429242899
 30
0.0
 10
254.9660249466416
 20
202.9197771298806
 30
0.0
 10
254.9000376448612
 20
203.0612873552142
 30
0.0
 10
254.7993720340491
 20
203.2771654542583
 30
0.0
 10
254.7233768405979
 20
203.4401376725397
 30
0.0
 10
254.6853798955628
 20
203.5216223841256
 30
0.0
  0
LINE
  5
144
330
1F
100
AcDbEntity
  8
0
  6
Continuous
 62
     7
370
    15
100
AcDbLine
 10
252.0605308113
 20
206.8091758247
 30
0.0
 11
252.1436657556
 21
206.8427645224
 31
0.0
  0
SPLINE
  5
145
330
1F
100
AcDbEntity
  8
0
  6
Continuous
 62
     7
370
    15
100
AcDbSpline
210
0.0
220
0.0
230
1.0
 70
     8
 71
     3
 72
    14
 73
    10
 74
     0
 42
0.00000001
 43
0.00000001
 12
1.0
 22
0.0
 32
0.0
 13
1.0
 23
0.0
 33
0.0
 40
0.0
 40
0.0
 40
0.0
 40
0.0
 40
0.0000064140457647
 40
0.0730558909548089
 40
0.2154935957733527
 40
0.4037789030075289
 40
0.5887468703998155
 40
0.8882363243876884
 40
1.0
 40
1.0
 40
1.0
 40
1.0
 10
252.1436657555753
 20
206.8427645224483
 30
0.0
 10
252.1436694635692
 20
206.8427660205487
 30
0.0
 10
252.1859034620495
 20
206.8598293625295
 30
0.0
 10
252.3161064492757
 20
206.8970577871688
 30
0.0
 10
252.5716926296925
 20
206.8982308470694
 30
0.0
 10
252.8860150243978
 20
206.8034231680386
 30
0.0
 10
253.2243492429993
 20
206.5420567920561
 30
0.0
 10
253.4229127454746
 20
206.2197397051043
 30
0.0
 10
253.5339382280438
 20
205.988919898146
 30
0.0
 10
253.5641109249193
 20
205.926191451423
 30
0.0
  0
SPLINE
  5
146
330
1F
100
AcDbEntity
  8
0
  6
Continuous
 62
     7
370
    15
100
AcDbSpline
210
0.0
220
0.0
230
1.0
 70
     8
 71
     3
 72
    15
 73
    11
 74
     0
 42
0.00000001
 43
0.00000001
 12
1.0
 22
0.0
 32
0.0
 13
1.0
 23
0.0
 33
0.0
 40
0.0
 40
0.0
 40
0.0
 40
0.0
 40
0.0125258353878262
 40
0.2274813526119815
 40
0.4424404199769695
 40
0.499999176320725
 40
0.7148755009570055
 40
0.9297495265588754
 40
0.9874741646146821
 40
1.0
 40
1.0
 40
1.0
 40
1.0
 10
252.2293474251323
 20
206.4471499321855
 30
0.0
 10
252.228306899759
 20
206.4495414197713
 30
0.0
 10
252.2094099470216
 20
206.4929731601643
 30
0.0
 10
252.1721117764633
 20
206.5775759737226
 30
0.0
 10
252.1351653945846
 20
206.6591195360858
 30
0.0
 10
252.1036460875534
 20
206.7271118174365
 30
0.0
 10
252.0776816171286
 20
206.7812841765331
 30
0.0
 10
252.0639910378939
 20
206.8062366288556
 30
0.0
 10
252.060992415672
 20
206.8092465586486
 30
0.0
 10
252.0606014958714
 20
206.8091868651678
 30
0.0
 10
252.0605317938918
 20
206.8091762216706
 30
0.0
  0
SPLINE
  5
147
330
1F
100
AcDbEntity
  8
0
  6
Continuous
 62
     7
370
    15
100
AcDbSpline
210
0.0
220
0.0
230
1.0
 70
     8
 71
     3
 72
     9
 73
     5
 74
     0
 42
0.00000001
 43
0.00000001
 12
1.0
 22
0.0
 32
0.0
 13
1.0
 23
0.0
 33
0.0
 40
0.0
 40
0.0
 40
0.0
 40
0.0
 40
0.0000220488581703
 40
0.9999999999999999
 40
0.9999999999999999
 40
0.9999999999999999
 40
0.9999999999999999
 10
262.0703649260176
 20
187.6844708784576
 30
0.0
 10
262.0703666164899
 20
187.6844672532259
 30
0.0
 10
262.1470359933257
 20
187.5200491392381
 30
0.0
 10
262.2052236056384
 20
187.3478302908283
 30
0.0
 10
262.2634099349805
 20
187.1756152396473
 30
0.0
  0
LINE
  5
148
330
1F
100
AcDbEntity
  8
0
  6
Continuous
 62
     7
370
    15
100
AcDbLine
 10
252.0605308113
 20
206.8091758247
 30
0.0
 11
252.0508201284
 21
206.8052524541
 31
0.0
  0
LINE
  5
149
330
1F
100
AcDbEntity
  8
0
  6
Continuous
 62
     7
370
    15
100
AcDbLine
 10
259.6812411702
 20
192.8079633069
 30
0.0
 11
262.070364926
 21
187.6844708785
 31
0.0
  0
LINE
  5
14A
330
1F
100
AcDbEntity
  8
0
  6
Continuous
 62
     7
370
    15
100
AcDbLine
 10
253.5641109249
 20
205.9261914514
 30
0.0
 11
254.6853798956
 21
203.5216223841
 31
0.0
  0
SPLINE
  5
14B
330
1F
100
AcDbEntity
  8
0
  6
Continuous
 62
     7
370
    15
100
AcDbSpline
210
0.0
220
0.0
230
1.0
 70
     8
 71
     3
 72
    20
 73
    16
 74
     0
 42
0.00000001
 43
0.00000001
 12
1.0
 22
0.0
 32
0.0
 13
1.0
 23
0.0
 33
0.0
 40
0.0
 40
0.0
 40
0.0
 40
0.0
 40
0.2070577373168181
 40
0.4203770502760525
 40
0.7011163025568202
 40
0.8834527988430971
 40
0.9282286404935004
 40
0.9524788585968996
 40
0.9675018207221251
 40
0.9773827146382262
 40
0.9840938553685337
 40
0.9887393639099367
 40
0.9919933949590691
 40
0.9977340800222572
 40
1.0
 40
1.0
 40
1.0
 40
1.0
 10
262.2634099349805
 20
187.1756152396473
 30
0.0
 10
262.2843830017032
 20
187.0777923451953
 30
0.0
 10
262.3269633758461
 20
186.8791883212545
 30
0.0
 10
262.287277114121
 20
186.5374368238863
 30
0.0
 10
262.1604597353212
 20
186.2780740595612
 30
0.0
 10
262.0263090322001
 20
186.1245366341836
 30
0.0
 10
261.9442386820998
 20
186.0602314108419
 30
0.0
 10
261.9151420822134
 20
186.0402123150073
 30
0.0
 10
261.8975628541305
 20
186.0290379984177
 30
0.0
 10
261.8860278976989
 20
186.0220836517836
 30
0.0
 10
261.8781776379755
 20
186.0175205049735
 30
0.0
 10
261.872729632189
 20
186.0144336057735
 30
0.0
 10
261.8676125623356
 20
186.011586946842
 30
0.0
 10
261.8633610819406
 20
186.0092681934134
 30
0.0
 10
261.860317446748
 20
186.007644462453
 30
0.0
 10
261.8594560786959
 20
186.0071849362989
 30
0.0
  0
SPLINE
  5
14C
330
1F
100
AcDbEntity
  8
0
  6
Continuous
 62
     7
370
    15
100
AcDbSpline
210
0.0
220
0.0
230
1.0
 70
     8
 71
     3
 72
    10
 73
     6
 74
     0
 42
0.00000001
 43
0.00000001
 12
1.0
 22
0.0
 32
0.0
 13
1.0
 23
0.0
 33
0.0
 40
0.0
 40
0.0
 40
0.0
 40
0.0
 40
0.4527378322260415
 40
0.9055954617465986
 40
1.0
 40
1.0
 40
1.0
 40
1.0
 10
262.2878262834175
 20
186.6162308596794
 30
0.0
 10
262.2893508927871
 20
186.6267307444872
 30
0.0
 10
262.2924005149475
 20
186.6477332924388
 30
0.0
 10
262.3170727184153
 20
186.7442670642346
 30
0.0
 10
262.3086686119736
 20
186.8395562203266
 30
0.0
 10
262.3072188757506
 20
186.8559939156601
 30
0.0
  0
SPLINE
  5
14D
330
1F
100
AcDbEntity
  8
0
  6
Continuous
 62
     7
370
    15
100
AcDbSpline
210
0.0
220
0.0
230
1.0
 70
     8
 71
     3
 72
    12
 73
     8
 74
     0
 42
0.00000001
 43
0.00000001
 12
1.0
 22
0.0
 32
0.0
 13
1.0
 23
0.0
 33
0.0
 40
0.0
 40
0.0
 40
0.0
 40
0.0
 40
0.4616906276056776
 40
0.7307729957157879
 40
0.9175829515525876
 40
0.9719359527204612
 40
1.0
 40
1.0
 40
1.0
 40
1.0
 10
262.2591997861021
 20
187.1906923994069
 30
0.0
 10
262.2531970275238
 20
187.2124043674112
 30
0.0
 10
262.2436957433162
 20
187.2467704969202
 30
0.0
 10
262.2293710672002
 20
187.2915902957299
 30
0.0
 10
262.2210728214282
 20
187.316464045712
 30
0.0
 10
262.2165753774572
 20
187.3295983663125
 30
0.0
 10
262.2151865383074
 20
187.3336159471808
 30
0.0
 10
262.2147136210129
 20
187.3349839842747
 30
0.0
  0
LINE
  5
14E
330
1F
100
AcDbEntity
  8
0
  6
Continuous
 62
     7
370
    15
100
AcDbLine
 10
253.2901429569
 20
206.378420321
 30
0.0
 11
253.2010204122
 21
206.5253981246
 31
0.0
  0
LINE
  5
14F
330
1F
100
AcDbEntity
  8
0
  6
Continuous
 62
     7
370
    15
100
AcDbLine
 10
262.0796012754
 20
187.6645617863
 30
0.0
 11
262.071194484
 21
187.6826910841
 31
0.0
  0
SPLINE
  5
150
330
1F
100
AcDbEntity
  8
0
  6
Continuous
 62
     7
370
    15
100
AcDbSpline
210
0.0
220
0.0
230
1.0
 70
     8
 71
     3
 72
     9
 73
     5
 74
     0
 42
0.00000001
 43
0.00000001
 12
1.0
 22
0.0
 32
0.0
 13
1.0
 23
0.0
 33
0.0
 40
0.0
 40
0.0
 40
0.0
 40
0.0
 40
0.5000138394956729
 40
1.0
 40
1.0
 40
1.0
 40
1.0
 10
262.1731626434524
 20
187.4470347301252
 30
0.0
 10
262.1595687609648
 20
187.4807781291851
 30
0.0
 10
262.1323817484987
 20
187.5482630593902
 30
0.0
 10
262.0971944418062
 20
187.6257962593663
 30
0.0
 10
262.0796012754345
 20
187.664561786334
 30
0.0
  0
SPLINE
  5
151
330
1F
100
AcDbEntity
  8
0
  6
Continuous
 62
     7
370
    15
100
AcDbSpline
210
0.0
220
0.0
230
1.0
 70
     8
 71
     3
 72
    13
 73
     9
 74
     0
 42
0.00000001
 43
0.00000001
 12
1.0
 22
0.0
 32
0.0
 13
1.0
 23
0.0
 33
0.0
 40
0.0
 40
0.0
 40
0.0
 40
0.0
 40
0.1254648118065471
 40
0.2502435788816359
 40
0.3760698054095832
 40
0.5019139201694385
 40
0.7508310514861671
 40
1.0
 40
1.0
 40
1.0
 40
1.0
 10
253.2010204121261
 20
206.5253981246793
 30
0.0
 10
253.1834850176681
 20
206.5448525803523
 30
0.0
 10
253.1485101127279
 20
206.5836551142478
 30
0.0
 10
253.0937737062918
 20
206.6355351416976
 30
0.0
 10
253.0403735808866
 20
206.6802295753764
 30
0.0
 10
252.9754017777447
 20
206.7279243261829
 30
0.0
 10
252.9088645097963
 20
206.7674364932698
 30
0.0
 10
252.8982815718093
 20
206.7728293333125
 30
0.0
 10
252.8929874276099
 20
206.775527116562
 30
0.0
  0
SPLINE
  5
152
330
1F
100
AcDbEntity
  8
0
  6
Continuous
 62
     7
370
    15
100
AcDbSpline
210
0.0
220
0.0
230
1.0
 70
     8
 71
     3
 72
     9
 73
     5
 74
     0
 42
0.00000001
 43
0.00000001
 12
1.0
 22
0.0
 32
0.0
 13
1.0
 23
0.0
 33
0.0
 40
0.0
 40
0.0
 40
0.0
 40
0.0
 40
0.7838918077666237
 40
1.0
 40
1.0
 40
1.0
 40
1.0
 10
262.3110533829837
 20
186.8144581364249
 30
0.0
 10
262.3122962601778
 20
186.8179737033194
 30
0.0
 10
262.3138817815236
 20
186.8224584636646
 30
0.0
 10
262.3092442785295
 20
186.8805611688268
 30
0.0
 10
262.3082420761409
 20
186.8931176394032
 30
0.0
  0
SPLINE
  5
153
330
1F
100
AcDbEntity
  8
0
  6
Continuous
 62
     7
370
    15
100
AcDbSpline
210
0.0
220
0.0
230
1.0
 70
     8
 71
     3
 72
     9
 73
     5
 74
     0
 42
0.00000001
 43
0.00000001
 12
1.0
 22
0.0
 32
0.0
 13
1.0
 23
0.0
 33
0.0
 40
0.0
 40
0.0
 40
0.0
 40
0.0
 40
0.0370163330241922
 40
1.0
 40
1.0
 40
1.0
 40
1.0
 10
262.2618012636377
 20
187.1798556056024
 30
0.0
 10
262.2612886081934
 20
187.1824306861391
 30
0.0
 10
262.247439169246
 20
187.2519967486389
 30
0.0
 10
262.2096005835036
 20
187.3513546723789
 30
0.0
 10
262.1731626434524
 20
187.4470347301252
 30
0.0
  0
LINE
  5
154
330
1F
100
AcDbEntity
  8
0
  6
Continuous
 62
     7
370
    15
100
AcDbLine
 10
262.2147136211
 20
187.3349839842
 30
0.0
 11
262.1722752618
 21
187.4466852923
 31
0.0
  0
LINE
  5
155
330
1F
100
AcDbEntity
  8
0
  6
Continuous
 62
     7
370
    15
100
AcDbLine
 10
260.2022215703
 20
192.4005777083
 30
0.0
 11
254.7081841677
 21
204.1825789398
 31
0.0
  0
LINE
  5
156
330
1F
100
AcDbEntity
  8
0
  6
Continuous
 62
     7
370
    15
100
AcDbLine
 10
257.26462662
 20
203.432673575
 30
0.0
 11
256.8588943511
 21
204.3027692336
 31
0.0
  0
LINE
  5
157
330
1F
100
AcDbEntity
  8
0
  6
Continuous
 62
     7
370
    15
100
AcDbLine
 10
261.676742535
 20
193.9708604614
 30
0.0
 11
261.271010266
 21
194.84095612
 31
0.0
  0
LINE
  5
158
330
1F
100
AcDbEntity
  8
0
  6
Continuous
 62
     7
370
    15
100
AcDbLine
 10
255.6828361933
 20
203.638352711
 30
0.0
 11
255.6369686293
 21
203.73664741
 31
0.0
  0
LINE
  5
159
330
1F
100
AcDbEntity
  8
0
  6
Continuous
 62
     7
370
    15
100
AcDbLine
 10
255.8585205224
 20
203.6119392147
 30
0.0
 11
255.6828361933
 21
203.638352711
 31
0.0
  0
LINE
  5
15A
330
1F
100
AcDbEntity
  8
0
  6
Continuous
 62
     7
370
    15
100
AcDbLine
 10
256.5510400339
 20
203.7508894612
 30
0.0
 11
255.825526188
 21
203.6864389272
 31
0.0
  0
SPLINE
  5
15B
330
1F
100
AcDbEntity
  8
0
  6
Continuous
 62
     7
370
    15
100
AcDbSpline
210
0.0
220
0.0
230
1.0
 70
     8
 71
     3
 72
    13
 73
     9
 74
     0
 42
0.00000001
 43
0.00000001
 12
1.0
 22
0.0
 32
0.0
 13
1.0
 23
0.0
 33
0.0
 40
0.0
 40
0.0
 40
0.0
 40
0.0
 40
0.1668687810416353
 40
0.3335139733833776
 40
0.5001418443617944
 40
0.6667240192321586
 40
0.8323715538120268
 40
0.9999999999999999
 40
0.9999999999999999
 40
0.9999999999999999
 40
0.9999999999999999
 10
256.8508152818708
 20
201.708288943398
 30
0.0
 10
256.8435740807003
 20
201.7062847288736
 30
0.0
 10
256.8291013808974
 20
201.7022789852865
 30
0.0
 10
256.8101206876224
 20
201.6922177248972
 30
0.0
 10
256.7944421359045
 20
201.6791842432454
 30
0.0
 10
256.7832104201844
 20
201.6634236967326
 30
0.0
 10
256.7761847350803
 20
201.64579608508
 30
0.0
 10
256.7756720104577
 20
201.6332184813615
 30
0.0
 10
256.775414124391
 20
201.6268923003891
 30
0.0
  0
SPLINE
  5
15C
330
1F
100
AcDbEntity
  8
0
  6
Continuous
 62
     7
370
    15
100
AcDbSpline
210
0.0
220
0.0
230
1.0
 70
     8
 71
     3
 72
    10
 73
     6
 74
     0
 42
0.00000001
 43
0.00000001
 12
1.0
 22
0.0
 32
0.0
 13
1.0
 23
0.0
 33
0.0
 40
0.0
 40
0.0
 40
0.0
 40
0.0
 40
0.5008430943488059
 40
0.7508790136583345
 40
0.9999999999999999
 40
0.9999999999999999
 40
0.9999999999999999
 40
0.9999999999999999
 10
257.1636781759917
 20
201.6399320460459
 30
0.0
 10
257.1137435336528
 20
201.6605831247048
 30
0.0
 10
257.0388800176936
 20
201.6915438422416
 30
0.0
 10
256.9306504817763
 20
201.7159932526322
 30
0.0
 10
256.8773944765231
 20
201.7108539064098
 30
0.0
 10
256.8508152818708
 20
201.708288943398
 30
0.0
  0
LINE
  5
15D
330
1F
100
AcDbEntity
  8
0
  6
Continuous
 62
     7
370
    15
100
AcDbLine
 10
257.5212042413
 20
201.4839162111
 30
0.0
 11
257.163678176
 21
201.639932046
 31
0.0
  0
LINE
  5
15E
330
1F
100
AcDbEntity
  8
0
  6
Continuous
 62
     7
370
    15
100
AcDbLine
 10
257.5962593166
 20
201.5013552547
 30
0.0
 11
257.5212042413
 21
201.4839162111
 31
0.0
  0
LINE
  5
15F
330
1F
100
AcDbEntity
  8
0
  6
Continuous
 62
     7
370
    15
100
AcDbLine
 10
257.3447896643
 20
201.7028190893
 30
0.0
 11
257.2298098831
 21
201.9427183784
 31
0.0
  0
SPLINE
  5
160
330
1F
100
AcDbEntity
  8
0
  6
Continuous
 62
     7
370
    15
100
AcDbSpline
210
0.0
220
0.0
230
1.0
 70
     8
 71
     3
 72
     9
 73
     5
 74
     0
 42
0.00000001
 43
0.00000001
 12
1.0
 22
0.0
 32
0.0
 13
1.0
 23
0.0
 33
0.0
 40
0.0
 40
0.0
 40
0.0
 40
0.0
 40
0.6943904332077667
 40
1.0
 40
1.0
 40
1.0
 40
1.0
 10
256.6345220420183
 20
201.5636409916806
 30
0.0
 10
256.623728488006
 20
201.5917901545918
 30
0.0
 10
256.6081845612812
 20
201.6323281020705
 30
0.0
 10
256.6140823271907
 20
201.6718641278662
 30
0.0
 10
256.6158847408754
 20
201.6839467155823
 30
0.0
  0
SPLINE
  5
161
330
1F
100
AcDbEntity
  8
0
  6
Continuous
 62
     7
370
    15
100
AcDbSpline
210
0.0
220
0.0
230
1.0
 70
     8
 71
     3
 72
    13
 73
     9
 74
     0
 42
0.00000001
 43
0.00000001
 12
1.0
 22
0.0
 32
0.0
 13
1.0
 23
0.0
 33
0.0
 40
0.0
 40
0.0
 40
0.0
 40
0.0
 40
0.2498957672619817
 40
0.3750954217629731
 40
0.500246309110946
 40
0.6260891681495321
 40
0.7505767696289283
 40
1.0
 40
1.0
 40
1.0
 40
1.0
 10
257.0296324325784
 20
201.3910143450135
 30
0.0
 10
256.9905174863767
 20
201.3858823961414
 30
0.0
 10
256.9318056586275
 20
201.3781793023765
 30
0.0
 10
256.8511138389529
 20
201.3906372287184
 30
0.0
 10
256.7929379275085
 20
201.4097426763327
 30
0.0
 10
256.7400681304196
 20
201.4382890145755
 30
0.0
 10
256.6788685864246
 20
201.4867861871336
 30
0.0
 10
256.6522670346827
 20
201.5328880218343
 30
0.0
 10
256.6345220420183
 20
201.5636409916806
 30
0.0
  0
SPLINE
  5
162
330
1F
100
AcDbEntity
  8
0
  6
Continuous
 62
     7
370
    15
100
AcDbSpline
210
0.0
220
0.0
230
1.0
 70
     8
 71
     3
 72
    13
 73
     9
 74
     0
 42
0.00000001
 43
0.00000001
 12
1.0
 22
0.0
 32
0.0
 13
1.0
 23
0.0
 33
0.0
 40
0.0
 40
0.0
 40
0.0
 40
0.0
 40
0.250554713355505
 40
0.5000895114310401
 40
0.6251715279108471
 40
0.7501838345785952
 40
0.8751021895207389
 40
0.9999999999999999
 40
0.9999999999999999
 40
0.9999999999999999
 40
0.9999999999999999
 10
258.4271142623388
 20
198.4943225403915
 30
0.0
 10
258.4182089269281
 20
198.5096193408259
 30
0.0
 10
258.4004345064232
 20
198.5401506740954
 30
0.0
 10
258.3708908795992
 20
198.5739525003067
 30
0.0
 10
258.3407045467645
 20
198.5911868035849
 30
0.0
 10
258.3161842997608
 20
198.5983968510687
 30
0.0
 10
258.2907160110294
 20
198.5993076991026
 30
0.0
 10
258.2751611252713
 20
198.5936195596904
 30
0.0
 10
258.2673843219961
 20
198.5907757238757
 30
0.0
  0
SPLINE
  5
163
330
1F
100
AcDbEntity
  8
0
  6
Continuous
 62
     7
370
    15
100
AcDbSpline
210
0.0
220
0.0
230
1.0
 70
     8
 71
     3
 72
    13
 73
     9
 74
     0
 42
0.00000001
 43
0.00000001
 12
1.0
 22
0.0
 32
0.0
 13
1.0
 23
0.0
 33
0.0
 40
0.0
 40
0.0
 40
0.0
 40
0.0
 40
0.2497025552938536
 40
0.3749249067604707
 40
0.5002270304517502
 40
0.6262186151574938
 40
0.7507599282806341
 40
1.0
 40
1.0
 40
1.0
 40
1.0
 10
258.7551904962855
 20
198.7270360580509
 30
0.0
 10
258.7463544349359
 20
198.7426638370158
 30
0.0
 10
258.7330872119644
 20
198.7661287293328
 30
0.0
 10
258.7059174761315
 20
198.7889107072112
 30
0.0
 10
258.6828981503564
 20
198.8012838503205
 30
0.0
 10
258.6584281333558
 20
198.8091960523205
 30
0.0
 10
258.6245280836309
 20
198.8130345049037
 30
0.0
 10
258.6008604763023
 20
198.8046791767561
 30
0.0
 10
258.5850787482998
 20
198.7991077848378
 30
0.0
  0
SPLINE
  5
164
330
1F
100
AcDbEntity
  8
0
  6
Continuous
 62
     7
370
    15
100
AcDbSpline
210
0.0
220
0.0
230
1.0
 70
     8
 71
     3
 72
    12
 73
     8
 74
     0
 42
0.00000001
 43
0.00000001
 12
1.0
 22
0.0
 32
0.0
 13
1.0
 23
0.0
 33
0.0
 40
0.0
 40
0.0
 40
0.0
 40
0.0
 40
0.2504797821883644
 40
0.4998422172398051
 40
0.6240491896562137
 40
0.7503609880625938
 40
1.0
 40
1.0
 40
1.0
 40
1.0
 10
258.7002036357093
 20
198.5414270624476
 30
0.0
 10
258.713768396054
 20
198.5519789975241
 30
0.0
 10
258.7408374066854
 20
198.5730357973132
 30
0.0
 10
258.7639971316212
 20
198.6117735045483
 30
0.0
 10
258.7713045441341
 20
198.6469979051485
 30
0.0
 10
258.7715966273853
 20
198.6837013642985
 30
0.0
 10
258.7617372945414
 20
198.7097435290715
 30
0.0
 10
258.7551904962855
 20
198.7270360580509
 30
0.0
  0
LINE
  5
165
330
1F
100
AcDbEntity
  8
0
  6
Continuous
 62
     7
370
    15
100
AcDbLine
 10
258.7696016614
 20
198.3873474644
 30
0.0
 11
258.7002036357
 21
198.5414270624
 31
0.0
  0
SPLINE
  5
166
330
1F
100
AcDbEntity
  8
0
  6
Continuous
 62
     7
370
    15
100
AcDbSpline
210
0.0
220
0.0
230
1.0
 70
     8
 71
     3
 72
    11
 73
     7
 74
     0
 42
0.00000001
 43
0.00000001
 12
1.0
 22
0.0
 32
0.0
 13
1.0
 23
0.0
 33
0.0
 40
0.0
 40
0.0
 40
0.0
 40
0.0
 40
0.2502399880622573
 40
0.5001008475454302
 40
0.749939236539129
 40
1.0
 40
1.0
 40
1.0
 40
1.0
 10
258.3965501290651
 20
198.7027535448123
 30
0.0
 10
258.3936412201741
 20
198.7283437203386
 30
0.0
 10
258.3878278095632
 20
198.7794853007416
 30
0.0
 10
258.4081544720528
 20
198.8529454760895
 30
0.0
 10
258.4498349029359
 20
198.9148100455681
 30
0.0
 10
258.491431484228
 20
198.9391319357691
 30
0.0
 10
258.5122390267577
 20
198.951298290528
 30
0.0
  0
SPLINE
  5
167
330
1F
100
AcDbEntity
  8
0
  6
Continuous
 62
     7
370
    15
100
AcDbSpline
210
0.0
220
0.0
230
1.0
 70
     8
 71
     3
 72
    12
 73
     8
 74
     0
 42
0.00000001
 43
0.00000001
 12
1.0
 22
0.0
 32
0.0
 13
1.0
 23
0.0
 33
0.0
 40
0.0
 40
0.0
 40
0.0
 40
0.0
 40
0.2500035867178426
 40
0.4996446644012498
 40
0.7492461600947762
 40
0.8746035298915781
 40
1.0
 40
1.0
 40
1.0
 40
1.0
 10
258.0959016641664
 20
198.4113431317077
 30
0.0
 10
258.0842172478182
 20
198.4421083358011
 30
0.0
 10
258.0608653577047
 20
198.5035941339702
 30
0.0
 10
258.0683529326794
 20
198.602194982304
 30
0.0
 10
258.1002802662352
 20
198.6748507022614
 30
0.0
 10
258.1426256239461
 20
198.7197252568107
 30
0.0
 10
258.169187129975
 20
198.7345157196963
 30
0.0
 10
258.1824699538714
 20
198.7419121042854
 30
0.0
  0
SPLINE
  5
168
330
1F
100
AcDbEntity
  8
0
  6
Continuous
 62
     7
370
    15
100
AcDbSpline
210
0.0
220
0.0
230
1.0
 70
     8
 71
     3
 72
     9
 73
     5
 74
     0
 42
0.00000001
 43
0.00000001
 12
1.0
 22
0.0
 32
0.0
 13
1.0
 23
0.0
 33
0.0
 40
0.0
 40
0.0
 40
0.0
 40
0.0
 40
0.4997213299035365
 40
1.0
 40
1.0
 40
1.0
 40
1.0
 10
258.2523147330666
 20
198.2584158234926
 30
0.0
 10
258.2191406686947
 20
198.275510631349
 30
0.0
 10
258.1527555408509
 20
198.3097193129349
 30
0.0
 10
258.1148599966312
 20
198.3774559413349
 30
0.0
 10
258.0959016641664
 20
198.4113431317077
 30
0.0
  0
SPLINE
  5
169
330
1F
100
AcDbEntity
  8
0
  6
Continuous
 62
     7
370
    15
100
AcDbSpline
210
0.0
220
0.0
230
1.0
 70
     8
 71
     3
 72
     9
 73
     5
 74
     0
 42
0.00000001
 43
0.00000001
 12
1.0
 22
0.0
 32
0.0
 13
1.0
 23
0.0
 33
0.0
 40
0.0
 40
0.0
 40
0.0
 40
0.0
 40
0.500630476334082
 40
1.0
 40
1.0
 40
1.0
 40
1.0
 10
258.4157555308408
 20
198.2576182451657
 30
0.0
 10
258.3887362392655
 20
198.2505033884593
 30
0.0
 10
258.3347657103974
 20
198.2362915954448
 30
0.0
 10
258.279775278733
 20
198.2510472828845
 30
0.0
 10
258.2523147330666
 20
198.2584158234926
 30
0.0
  0
LINE
  5
16A
330
1F
100
AcDbEntity
  8
0
  6
Continuous
 62
     7
370
    15
100
AcDbLine
 10
259.549423561
 20
195.3258815446
 30
0.0
 11
259.489162475
 21
195.45191671
 31
0.0
  0
LINE
  5
16B
330
1F
100
AcDbEntity
  8
0
  6
Continuous
 62
     7
370
    15
100
AcDbLine
 10
260.0363469771
 20
195.88051286
 30
0.0
 11
260.1733002898
 21
195.9878134122
 31
0.0
  0
LINE
  5
16C
330
1F
100
AcDbEntity
  8
0
  6
Continuous
 62
     7
370
    15
100
AcDbLine
 10
259.889849296
 20
195.8480169128
 30
0.0
 11
260.0072888349
 21
195.9400113951
 31
0.0
  0
LINE
  5
16D
330
1F
100
AcDbEntity
  8
0
  6
Continuous
 62
     7
370
    15
100
AcDbLine
 10
259.9188901285
 20
195.7885278228
 30
0.0
 11
259.889849296
 21
195.8480169128
 31
0.0
  0
LINE
  5
16E
330
1F
100
AcDbEntity
  8
0
  6
Continuous
 62
     7
370
    15
100
AcDbLine
 10
259.489162475
 20
195.45191671
 30
0.0
 11
259.9188901285
 21
195.7885278228
 31
0.0
  0
LINE
  5
16F
330
1F
100
AcDbEntity
  8
0
  6
Continuous
 62
     7
370
    15
100
AcDbLine
 10
260.5307581784
 20
193.2533571325
 30
0.0
 11
260.4627001901
 21
193.3924059262
 31
0.0
  0
SPLINE
  5
170
330
1F
100
AcDbEntity
  8
0
  6
Continuous
 62
     7
370
    15
100
AcDbSpline
210
0.0
220
0.0
230
1.0
 70
     8
 71
     3
 72
    10
 73
     6
 74
     0
 42
0.00000001
 43
0.00000001
 12
1.0
 22
0.0
 32
0.0
 13
1.0
 23
0.0
 33
0.0
 40
0.0
 40
0.0
 40
0.0
 40
0.0
 40
0.2499966304038913
 40
0.5002514141206834
 40
1.0
 40
1.0
 40
1.0
 40
1.0
 10
260.8387830709125
 20
193.6322212128313
 30
0.0
 10
260.8409864067366
 20
193.6294239945779
 30
0.0
 10
260.8453953536092
 20
193.6238266695875
 30
0.0
 10
260.8633759596813
 20
193.6237538773368
 30
0.0
 10
260.881777482826
 20
193.6318720822153
 30
0.0
 10
260.8940389412971
 20
193.6372814731225
 30
0.0
  0
SPLINE
  5
171
330
1F
100
AcDbEntity
  8
0
  6
Continuous
 62
     7
370
    15
100
AcDbSpline
210
0.0
220
0.0
230
1.0
 70
     8
 71
     3
 72
    11
 73
     7
 74
     0
 42
0.00000001
 43
0.00000001
 12
1.0
 22
0.0
 32
0.0
 13
1.0
 23
0.0
 33
0.0
 40
0.0
 40
0.0
 40
0.0
 40
0.0
 40
0.2503307229580368
 40
0.5003304167015202
 40
0.7501387009226513
 40
0.9999999999999999
 40
0.9999999999999999
 40
0.9999999999999999
 40
0.9999999999999999
 10
260.9999907294848
 20
193.7312982666375
 30
0.0
 10
261.0073681099415
 20
193.7418432501703
 30
0.0
 10
261.0221131152467
 20
193.7629192728923
 30
0.0
 10
261.0368681815768
 20
193.7921800501076
 30
0.0
 10
261.0443329951873
 20
193.8171775936564
 30
0.0
 10
261.0416617018666
 20
193.8275144088941
 30
0.0
 10
261.0403259134943
 20
193.8326833648801
 30
0.0
  0
LINE
  5
172
330
1F
100
AcDbEntity
  8
0
  6
Continuous
 62
     7
370
    15
100
AcDbLine
 10
261.0231961166
 20
193.6770551325
 30
0.0
 11
260.9999907295
 21
193.7312982666
 31
0.0
  0
SPLINE
  5
173
330
1F
100
AcDbEntity
  8
0
  6
Continuous
 62
     7
370
    15
100
AcDbSpline
210
0.0
220
0.0
230
1.0
 70
     8
 71
     3
 72
    11
 73
     7
 74
     0
 42
0.00000001
 43
0.00000001
 12
1.0
 22
0.0
 32
0.0
 13
1.0
 23
0.0
 33
0.0
 40
0.0
 40
0.0
 40
0.0
 40
0.0
 40
0.2762133740196828
 40
0.5521801340599345
 40
0.8281001877882516
 40
1.0
 40
1.0
 40
1.0
 40
1.0
 10
260.8827593652126
 20
193.8272341303586
 30
0.0
 10
260.9118423868511
 20
193.8547899037451
 30
0.0
 10
260.969982463682
 20
193.909876847658
 30
0.0
 10
261.0536439807005
 20
193.9566872827765
 30
0.0
 10
261.1158337384841
 20
193.9744503576768
 30
0.0
 10
261.1317581915044
 20
193.9585444020196
 30
0.0
 10
261.1378709406073
 20
193.9524387533012
 30
0.0
  0
SPLINE
  5
174
330
1F
100
AcDbEntity
  8
0
  6
Continuous
 62
     7
370
    15
100
AcDbSpline
210
0.0
220
0.0
230
1.0
 70
     8
 71
     3
 72
    13
 73
     9
 74
     0
 42
0.00000001
 43
0.00000001
 12
1.0
 22
0.0
 32
0.0
 13
1.0
 23
0.0
 33
0.0
 40
0.0
 40
0.0
 40
0.0
 40
0.0
 40
0.2493178862008026
 40
0.3731116598096382
 40
0.4997957686022554
 40
0.6255125568845411
 40
0.7502732772197641
 40
1.0
 40
1.0
 40
1.0
 40
1.0
 10
260.725594717709
 20
193.5215990584464
 30
0.0
 10
260.7219276443162
 20
193.5367538074439
 30
0.0
 10
260.7164397595073
 20
193.5594333417471
 30
0.0
 10
260.73132072532
 20
193.6091942004841
 30
0.0
 10
260.7499115021813
 20
193.6508879739316
 30
0.0
 10
260.775429766224
 20
193.6956035923373
 30
0.0
 10
260.8174386286682
 20
193.7565909707675
 30
0.0
 10
260.8566267742558
 20
193.7989722201115
 30
0.0
 10
260.8827593652126
 20
193.8272341303586
 30
0.0
  0
LINE
  5
175
330
1F
100
AcDbEntity
  8
0
  6
Continuous
 62
     7
370
    15
100
AcDbLine
 10
260.7403364757
 20
193.5089334435
 30
0.0
 11
260.7255947177
 21
193.5215990584
 31
0.0
  0
LINE
  5
176
330
1F
100
AcDbEntity
  8
0
  6
Continuous
 62
     7
370
    15
100
AcDbLine
 10
260.6213460442
 20
193.4050940368
 30
0.0
 11
260.7403364757
 21
193.5089334435
 31
0.0
  0
LINE
  5
177
330
1F
100
AcDbEntity
  8
0
  6
Continuous
 62
     7
370
    15
100
AcDbLine
 10
260.4627001901
 20
193.3924059262
 30
0.0
 11
260.5719220931
 21
193.5037717825
 31
0.0
  0
LINE
  5
178
330
1F
100
AcDbEntity
  8
0
  6
Continuous
 62
     7
370
    15
100
AcDbLine
 10
258.3486806257
 20
198.4073015239
 30
0.0
 11
258.4164843805
 21
198.2578127925
 31
0.0
  0
SPLINE
  5
179
330
1F
100
AcDbEntity
  8
0
  6
Continuous
 62
     7
370
    15
100
AcDbSpline
210
0.0
220
0.0
230
1.0
 70
     8
 71
     3
 72
     9
 73
     5
 74
     0
 42
0.00000001
 43
0.00000001
 12
1.0
 22
0.0
 32
0.0
 13
1.0
 23
0.0
 33
0.0
 40
0.0
 40
0.0
 40
0.0
 40
0.0
 40
0.5006165645729667
 40
0.9999999999999999
 40
0.9999999999999999
 40
0.9999999999999999
 40
0.9999999999999999
 10
258.4164843804897
 20
198.2578127924621
 30
0.0
 10
258.3894638525665
 20
198.2506996869142
 30
0.0
 10
258.3354893542472
 20
198.2364909969681
 30
0.0
 10
258.2804976248942
 20
198.2512563220777
 30
0.0
 10
258.25303566617
 20
198.2586298808561
 30
0.0
  0
SPLINE
  5
17A
330
1F
100
AcDbEntity
  8
0
  6
Continuous
 62
     7
370
    15
100
AcDbSpline
210
0.0
220
0.0
230
1.0
 70
     8
 71
     3
 72
     9
 73
     5
 74
     0
 42
0.00000001
 43
0.00000001
 12
1.0
 22
0.0
 32
0.0
 13
1.0
 23
0.0
 33
0.0
 40
0.0
 40
0.0
 40
0.0
 40
0.0
 40
0.4997008530855022
 40
1.0
 40
1.0
 40
1.0
 40
1.0
 10
258.2530342424392
 20
198.2586304010763
 30
0.0
 10
258.2198560569057
 20
198.2757340698157
 30
0.0
 10
258.1534599614644
 20
198.3099618855856
 30
0.0
 10
258.115557700038
 20
198.3777160117623
 30
0.0
 10
258.0965952309801
 20
198.4116133432884
 30
0.0
  0
SPLINE
  5
17B
330
1F
100
AcDbEntity
  8
0
  6
Continuous
 62
     7
370
    15
100
AcDbSpline
210
0.0
220
0.0
230
1.0
 70
     8
 71
     3
 72
    12
 73
     8
 74
     0
 42
0.00000001
 43
0.00000001
 12
1.0
 22
0.0
 32
0.0
 13
1.0
 23
0.0
 33
0.0
 40
0.0
 40
0.0
 40
0.0
 40
0.0
 40
0.2500356429272025
 40
0.4996919190955496
 40
0.7492818424375263
 40
0.8746232850112369
 40
1.0
 40
1.0
 40
1.0
 40
1.0
 10
258.0965952309801
 20
198.4116133432884
 30
0.0
 10
258.0849066964834
 20
198.4423869683718
 30
0.0
 10
258.0615473619272
 20
198.503887527234
 30
0.0
 10
258.0690220516524
 20
198.6025096301481
 30
0.0
 10
258.1009421385655
 20
198.6751825233403
 30
0.0
 10
258.1432858363605
 20
198.7200653400632
 30
0.0
 10
258.1698475684475
 20
198.7348567874406
 30
0.0
 10
258.1831303029166
 20
198.7422535516006
 30
0.0
  0
SPLINE
  5
17C
330
1F
100
AcDbEntity
  8
0
  6
Continuous
 62
     7
370
    15
100
AcDbSpline
210
0.0
220
0.0
230
1.0
 70
     8
 71
     3
 72
    11
 73
     7
 74
     0
 42
0.00000001
 43
0.00000001
 12
1.0
 22
0.0
 32
0.0
 13
1.0
 23
0.0
 33
0.0
 40
0.0
 40
0.0
 40
0.0
 40
0.0
 40
0.2497918759814294
 40
0.4996164650704943
 40
0.7496500228683577
 40
1.0
 40
1.0
 40
1.0
 40
1.0
 10
258.1831303029167
 20
198.7422535516006
 30
0.0
 10
258.2007502448442
 20
198.7488415559703
 30
0.0
 10
258.2359924362326
 20
198.7620184274842
 30
0.0
 10
258.2941103889614
 20
198.7584914408966
 30
0.0
 10
258.3496718337208
 20
198.7389632576036
 30
0.0
 10
258.3813682307654
 20
198.7150331882023
 30
0.0
 10
258.3972264509532
 20
198.7030605873687
 30
0.0
  0
SPLINE
  5
17D
330
1F
100
AcDbEntity
  8
0
  6
Continuous
 62
     7
370
    15
100
AcDbSpline
210
0.0
220
0.0
230
1.0
 70
     8
 71
     3
 72
    11
 73
     7
 74
     0
 42
0.00000001
 43
0.00000001
 12
1.0
 22
0.0
 32
0.0
 13
1.0
 23
0.0
 33
0.0
 40
0.0
 40
0.0
 40
0.0
 40
0.0
 40
0.2502722655241931
 40
0.5001441456561799
 40
0.7499686563292997
 40
1.0
 40
1.0
 40
1.0
 40
1.0
 10
258.3972265470503
 20
198.7030605984461
 30
0.0
 10
258.3943144041524
 20
198.7286570600876
 30
0.0
 10
258.3884947772008
 20
198.7798090341695
 30
0.0
 10
258.4088122333231
 20
198.8532852654203
 30
0.0
 10
258.4504874984856
 20
198.9151628422276
 30
0.0
 10
258.4920850672722
 20
198.9394873079347
 30
0.0
 10
258.5128924578966
 20
198.9516545733413
 30
0.0
  0
SPLINE
  5
17E
330
1F
100
AcDbEntity
  8
0
  6
Continuous
 62
     7
370
    15
100
AcDbSpline
210
0.0
220
0.0
230
1.0
 70
     8
 71
     3
 72
    12
 73
     8
 74
     0
 42
0.00000001
 43
0.00000001
 12
1.0
 22
0.0
 32
0.0
 13
1.0
 23
0.0
 33
0.0
 40
0.0
 40
0.0
 40
0.0
 40
0.0
 40
0.2493224862309017
 40
0.3746760781431462
 40
0.5001494989181077
 40
0.7497768430247808
 40
1.0
 40
1.0
 40
1.0
 40
1.0
 10
258.5128924578966
 20
198.9516545733413
 30
0.0
 10
258.5483671538236
 20
198.9638558602159
 30
0.0
 10
258.6016777081349
 20
198.982191672535
 30
0.0
 10
258.6777578600065
 20
198.9710228806956
 30
0.0
 10
258.7500926149851
 20
198.9455821744286
 30
0.0
 10
258.8328326239232
 20
198.8868407722708
 30
0.0
 10
258.8718607378263
 20
198.8168505473132
 30
0.0
 10
258.8913980551852
 20
198.7818137212855
 30
0.0
  0
SPLINE
  5
17F
330
1F
100
AcDbEntity
  8
0
  6
Continuous
 62
     7
370
    15
100
AcDbSpline
210
0.0
220
0.0
230
1.0
 70
     8
 71
     3
 72
    13
 73
     9
 74
     0
 42
0.00000001
 43
0.00000001
 12
1.0
 22
0.0
 32
0.0
 13
1.0
 23
0.0
 33
0.0
 40
0.0
 40
0.0
 40
0.0
 40
0.0
 40
0.2496106696941981
 40
0.3750348042323107
 40
0.4999515380912756
 40
0.6248925914948209
 40
0.7502737772131495
 40
1.0
 40
1.0
 40
1.0
 40
1.0
 10
258.8913980551853
 20
198.7818137212855
 30
0.0
 10
258.9055054493784
 20
198.7446752782103
 30
0.0
 10
258.9267015137371
 20
198.6888755451891
 30
0.0
 10
258.9265431803859
 20
198.6098691797031
 30
0.0
 10
258.9148164991232
 20
198.5527699522932
 30
0.0
 10
258.8918794906493
 20
198.5000241801902
 30
0.0
 10
258.8477590253125
 20
198.4383193111792
 30
0.0
 10
258.8012795796973
 20
198.4078289227317
 30
0.0
 10
258.7703360789092
 20
198.3875300713477
 30
0.0
  0
LINE
  5
180
330
1F
100
AcDbEntity
  8
0
  6
Continuous
 62
     7
370
    15
100
AcDbLine
 10
258.7703360789
 20
198.3875300713
 30
0.0
 11
258.7009159848
 21
198.5416569952
 31
0.0
  0
SPLINE
  5
181
330
1F
100
AcDbEntity
  8
0
  6
Continuous
 62
     7
370
    15
100
AcDbSpline
210
0.0
220
0.0
230
1.0
 70
     8
 71
     3
 72
    12
 73
     8
 74
     0
 42
0.00000001
 43
0.00000001
 12
1.0
 22
0.0
 32
0.0
 13
1.0
 23
0.0
 33
0.0
 40
0.0
 40
0.0
 40
0.0
 40
0.0
 40
0.2504472301550976
 40
0.4997947000103528
 40
0.6239894148599089
 40
0.7503305927502375
 40
1.0
 40
1.0
 40
1.0
 40
1.0
 10
258.7009159848411
 20
198.5416569952175
 30
0.0
 10
258.7144804332633
 20
198.5522100720542
 30
0.0
 10
258.7415497660956
 20
198.5732698852072
 30
0.0
 10
258.7647048709231
 20
198.6120142852933
 30
0.0
 10
258.7720085234582
 20
198.6472453356996
 30
0.0
 10
258.7722965238298
 20
198.6839579016686
 30
0.0
 10
258.7624336659386
 20
198.7100076748347
 30
0.0
 10
258.7558847708256
 20
198.7273046118956
 30
0.0
  0
SPLINE
  5
182
330
1F
100
AcDbEntity
  8
0
  6
Continuous
 62
     7
370
    15
100
AcDbSpline
210
0.0
220
0.0
230
1.0
 70
     8
 71
     3
 72
    14
 73
    10
 74
     0
 42
0.00000001
 43
0.00000001
 12
1.0
 22
0.0
 32
0.0
 13
1.0
 23
0.0
 33
0.0
 40
0.0
 40
0.0
 40
0.0
 40
0.0
 40
0.249405417466083
 40
0.3744722121319858
 40
0.499611234005862
 40
0.6254136977070448
 40
0.7497958388636717
 40
0.8748051731654447
 40
1.0
 40
1.0
 40
1.0
 40
1.0
 10
258.7558840768802
 20
198.7273062400782
 30
0.0
 10
258.7470464651498
 20
198.7429374869598
 30
0.0
 10
258.7337771462703
 20
198.7664071760211
 30
0.0
 10
258.7065987626225
 20
198.789208657441
 30
0.0
 10
258.6835914563268
 20
198.801556032693
 30
0.0
 10
258.6590677904375
 20
198.8095913118587
 30
0.0
 10
258.6337709306052
 20
198.8120455800372
 30
0.0
 10
258.6087400546254
 20
198.8090327035932
 30
0.0
 10
258.5934199559458
 20
198.8026236749857
 30
0.0
 10
258.5857542277158
 20
198.7994167849682
 30
0.0
  0
SPLINE
  5
183
330
1F
100
AcDbEntity
  8
0
  6
Continuous
 62
     7
370
    15
100
AcDbSpline
210
0.0
220
0.0
230
1.0
 70
     8
 71
     3
 72
    13
 73
     9
 74
     0
 42
0.00000001
 43
0.00000001
 12
1.0
 22
0.0
 32
0.0
 13
1.0
 23
0.0
 33
0.0
 40
0.0
 40
0.0
 40
0.0
 40
0.0
 40
0.1246152089945958
 40
0.2499209492419442
 40
0.3736239356906425
 40
0.5000686572354154
 40
0.7496112235216353
 40
1.0
 40
1.0
 40
1.0
 40
1.0
 10
258.5857542277158
 20
198.7994167849682
 30
0.0
 10
258.576257911455
 20
198.7939207696673
 30
0.0
 10
258.5572126569202
 20
198.782898283952
 30
0.0
 10
258.5367964616072
 20
198.7558453339857
 30
0.0
 10
258.523982424055
 20
198.7241668204472
 30
0.0
 10
258.5162790781398
 20
198.6784998785479
 30
0.0
 10
258.5241803786629
 20
198.6189704077946
 30
0.0
 10
258.5418182563153
 20
198.575300366017
 30
0.0
 10
258.5506521225429
 20
198.5534283860187
 30
0.0
  0
LINE
  5
184
330
1F
100
AcDbEntity
  8
0
  6
Continuous
 62
     7
370
    15
100
AcDbLine
 10
258.5506521225
 20
198.553428386
 30
0.0
 11
258.4278166812
 21
198.4945740054
 31
0.0
  0
SPLINE
  5
185
330
1F
100
AcDbEntity
  8
0
  6
Continuous
 62
     7
370
    15
100
AcDbSpline
210
0.0
220
0.0
230
1.0
 70
     8
 71
     3
 72
    14
 73
    10
 74
     0
 42
0.00000001
 43
0.00000001
 12
1.0
 22
0.0
 32
0.0
 13
1.0
 23
0.0
 33
0.0
 40
0.0
 40
0.0
 40
0.0
 40
0.0
 40
0.250493584686821
 40
0.4999601479604099
 40
0.6249984150478581
 40
0.749958167263088
 40
0.8748152766615873
 40
0.9373873475845877
 40
1.0
 40
1.0
 40
1.0
 40
1.0
 10
258.4278165909645
 20
198.4945739622059
 30
0.0
 10
258.4189096928084
 20
198.5098737531977
 30
0.0
 10
258.4011324146974
 20
198.5404106061778
 30
0.0
 10
258.3715755737945
 20
198.5742465283815
 30
0.0
 10
258.3414031640609
 20
198.5914423348558
 30
0.0
 10
258.3168257676645
 20
198.5988008361595
 30
0.0
 10
258.2957603744723
 20
198.5991141600351
 30
0.0
 10
258.2794766234106
 20
198.5959084290574
 30
0.0
 10
258.2718708301274
 20
198.592683110511
 30
0.0
 10
258.2680667006898
 20
198.5910699284574
 30
0.0
  0
SPLINE
  5
186
330
1F
100
AcDbEntity
  8
0
  6
Continuous
 62
     7
370
    15
100
AcDbSpline
210
0.0
220
0.0
230
1.0
 70
     8
 71
     3
 72
    14
 73
    10
 74
     0
 42
0.00000001
 43
0.00000001
 12
1.0
 22
0.0
 32
0.0
 13
1.0
 23
0.0
 33
0.0
 40
0.0
 40
0.0
 40
0.0
 40
0.0
 40
0.2488961579031994
 40
0.3739774511839797
 40
0.4991302821848662
 40
0.6242583448165417
 40
0.7494501112120726
 40
0.8746564537559304
 40
1.0
 40
1.0
 40
1.0
 40
1.0
 10
258.2680667006898
 20
198.5910699284574
 30
0.0
 10
258.2587156440604
 20
198.5852023247126
 30
0.0
 10
258.2446652691827
 20
198.5763859913808
 30
0.0
 10
258.232540231709
 20
198.5572681797026
 30
0.0
 10
258.2269883505502
 20
198.5410746141067
 30
0.0
 10
258.2242948176856
 20
198.5238754409805
 30
0.0
 10
258.2255488850697
 20
198.5062907203492
 30
0.0
 10
258.2294768223796
 20
198.4890138372384
 30
0.0
 10
258.2340470806884
 20
198.4781426029398
 30
0.0
 10
258.2363334612031
 20
198.4727040091906
 30
0.0
  0
SPLINE
  5
187
330
1F
100
AcDbEntity
  8
0
  6
Continuous
 62
     7
370
    15
100
AcDbSpline
210
0.0
220
0.0
230
1.0
 70
     8
 71
     3
 72
    12
 73
     8
 74
     0
 42
0.00000001
 43
0.00000001
 12
1.0
 22
0.0
 32
0.0
 13
1.0
 23
0.0
 33
0.0
 40
0.0
 40
0.0
 40
0.0
 40
0.0
 40
0.2498073254944371
 40
0.4995419295728059
 40
0.749393361613004
 40
0.8746510216452772
 40
1.0
 40
1.0
 40
1.0
 40
1.0
 10
258.2363340291523
 20
198.472702908762
 30
0.0
 10
258.2423026682462
 20
198.4622748080013
 30
0.0
 10
258.2542382089031
 20
198.4414216422044
 30
0.0
 10
258.282748832736
 20
198.4196242201358
 30
0.0
 10
258.3095808603672
 20
198.4091200847845
 30
0.0
 10
258.3319896905641
 20
198.4058663236451
 30
0.0
 10
258.3431156292313
 20
198.4068230076134
 30
0.0
 10
258.3486806256502
 20
198.4073015239001
 30
0.0
  0
LINE
  5
188
330
1F
100
AcDbEntity
  8
0
  6
Continuous
 62
     7
370
    15
100
AcDbLine
 10
258.1831303029
 20
198.7422535516
 30
0.0
 11
258.1824699539
 21
198.7419121043
 31
0.0
  0
LINE
  5
189
330
1F
100
AcDbEntity
  8
0
  6
Continuous
 62
     7
370
    15
100
AcDbLine
 10
258.096595231
 20
198.4116133433
 30
0.0
 11
258.0959016642
 21
198.4113431317
 31
0.0
  0
LINE
  5
18A
330
1F
100
AcDbEntity
  8
0
  6
Continuous
 62
     7
370
    15
100
AcDbLine
 10
258.2530342424
 20
198.2586304011
 30
0.0
 11
258.2523147331
 21
198.2584158235
 31
0.0
  0
LINE
  5
18B
330
1F
100
AcDbEntity
  8
0
  6
Continuous
 62
     7
370
    15
100
AcDbLine
 10
258.427816591
 20
198.4945739622
 30
0.0
 11
258.4271142623
 21
198.4943225404
 31
0.0
  0
LINE
  5
18C
330
1F
100
AcDbEntity
  8
0
  6
Continuous
 62
     7
370
    15
100
AcDbLine
 10
258.2680667007
 20
198.5910699285
 30
0.0
 11
258.267384322
 21
198.5907757239
 31
0.0
  0
LINE
  5
18D
330
1F
100
AcDbEntity
  8
0
  6
Continuous
 62
     7
370
    15
100
AcDbLine
 10
258.7558840769
 20
198.7273062401
 30
0.0
 11
258.7551904963
 21
198.7270360581
 31
0.0
  0
LINE
  5
18E
330
1F
100
AcDbEntity
  8
0
  6
Continuous
 62
     7
370
    15
100
AcDbLine
 10
258.5857542277
 20
198.799416785
 30
0.0
 11
258.5850787483
 21
198.7991077848
 31
0.0
  0
LINE
  5
18F
330
1F
100
AcDbEntity
  8
0
  6
Continuous
 62
     7
370
    15
100
AcDbLine
 10
258.7009159848
 20
198.5416569952
 30
0.0
 11
258.7002036357
 21
198.5414270624
 31
0.0
  0
LINE
  5
190
330
1F
100
AcDbEntity
  8
0
  6
Continuous
 62
     7
370
    15
100
AcDbLine
 10
258.7703360789
 20
198.3875300713
 30
0.0
 11
258.7696016614
 21
198.3873474644
 31
0.0
  0
LINE
  5
191
330
1F
100
AcDbEntity
  8
0
  6
Continuous
 62
     7
370
    15
100
AcDbLine
 10
257.4196750382
 20
203.1001711692
 30
0.0
 11
261.1159618479
 21
195.1734585258
 31
0.0
  0
LINE
  5
192
330
1F
100
AcDbEntity
  8
0
  6
Continuous
 62
     7
370
    15
100
AcDbLine
 10
256.634778943
 20
201.5648476362
 30
0.0
 11
256.634522042
 21
201.5636409917
 31
0.0
  0
SPLINE
  5
193
330
1F
100
AcDbEntity
  8
0
  6
Continuous
 62
     7
370
    15
100
AcDbSpline
210
0.0
220
0.0
230
1.0
 70
     8
 71
     3
 72
    13
 73
     9
 74
     0
 42
0.00000001
 43
0.00000001
 12
1.0
 22
0.0
 32
0.0
 13
1.0
 23
0.0
 33
0.0
 40
0.0
 40
0.0
 40
0.0
 40
0.0
 40
0.2498615142152952
 40
0.3750499752468649
 40
0.5001966880806628
 40
0.6260356875229846
 40
0.7505418622209208
 40
1.0
 40
1.0
 40
1.0
 40
1.0
 10
257.0299229933316
 20
201.39214880588
 30
0.0
 10
256.9908069523102
 20
201.3870181694848
 30
0.0
 10
256.9320925470005
 20
201.3793169232201
 30
0.0
 10
256.8513971736604
 20
201.3917839282105
 30
0.0
 10
256.7932181882814
 20
201.4108983021714
 30
0.0
 10
256.7403433809128
 20
201.4394556496572
 30
0.0
 10
256.6791354280644
 20
201.4879701825881
 30
0.0
 10
256.6525278805744
 20
201.5340856602724
 30
0.0
 10
256.6347789429718
 20
201.5648476362206
 30
0.0
  0
LINE
  5
194
330
1F
100
AcDbEntity
  8
0
  6
Continuous
 62
     7
370
    15
100
AcDbLine
 10
257.0299229933
 20
201.3921488059
 30
0.0
 11
257.0296324326
 21
201.391014345
 31
0.0
  0
LINE
  5
195
330
1F
100
AcDbEntity
  8
0
  6
Continuous
 62
     7
370
    15
100
AcDbLine
 10
256.9711851811
 20
201.5224555494
 30
0.0
 11
257.0299229933
 21
201.3921488059
 31
0.0
  0
SPLINE
  5
196
330
1F
100
AcDbEntity
  8
0
  6
Continuous
 62
     7
370
    15
100
AcDbSpline
210
0.0
220
0.0
230
1.0
 70
     8
 71
     3
 72
    12
 73
     8
 74
     0
 42
0.00000001
 43
0.00000001
 12
1.0
 22
0.0
 32
0.0
 13
1.0
 23
0.0
 33
0.0
 40
0.0
 40
0.0
 40
0.0
 40
0.0
 40
0.2500632674071989
 40
0.3767833398324981
 40
0.5008646479452505
 40
0.7506161014966377
 40
1.0
 40
1.0
 40
1.0
 40
1.0
 10
256.6347789429718
 20
201.5648476362206
 30
0.0
 10
256.624534419959
 20
201.5928839097332
 30
0.0
 10
256.6090984639478
 20
201.6351276222149
 30
0.0
 10
256.6147763927816
 20
201.6909192441083
 30
0.0
 10
256.6347913524298
 20
201.7426092679215
 30
0.0
 10
256.684464918987
 20
201.7988801689759
 30
0.0
 10
256.7465315191153
 20
201.8214586854475
 30
0.0
 10
256.7775419667687
 20
201.8327396304596
 30
0.0
  0
SPLINE
  5
197
330
1F
100
AcDbEntity
  8
0
  6
Continuous
 62
     7
370
    15
100
AcDbSpline
210
0.0
220
0.0
230
1.0
 70
     8
 71
     3
 72
    10
 73
     6
 74
     0
 42
0.00000001
 43
0.00000001
 12
1.0
 22
0.0
 32
0.0
 13
1.0
 23
0.0
 33
0.0
 40
0.0
 40
0.0
 40
0.0
 40
0.0
 40
0.2495242873690759
 40
0.4996000848870303
 40
1.0
 40
1.0
 40
1.0
 40
1.0
 10
256.7775419667687
 20
201.8327396304596
 30
0.0
 10
256.8137740676684
 20
201.83750944753
 30
0.0
 10
256.886318351337
 20
201.8470596241413
 30
0.0
 10
257.0372835898368
 20
201.824359744841
 30
0.0
 10
257.1418978875232
 20
201.7844971977548
 30
0.0
 10
257.2116522910313
 20
201.7579177697433
 30
0.0
  0
LINE
  5
198
330
1F
100
AcDbEntity
  8
0
  6
Continuous
 62
     7
370
    15
100
AcDbLine
 10
257.211652291
 20
201.7579177697
 30
0.0
 11
257.3450498512
 21
201.7040186872
 31
0.0
  0
LINE
  5
199
330
1F
100
AcDbEntity
  8
0
  6
Continuous
 62
     7
370
    15
100
AcDbLine
 10
257.3450498512
 20
201.7040186872
 30
0.0
 11
257.230035147
 21
201.9439928688
 31
0.0
  0
LINE
  5
19A
330
1F
100
AcDbEntity
  8
0
  6
Continuous
 62
     7
370
    15
100
AcDbLine
 10
257.230035147
 20
201.9439928688
 30
0.0
 11
257.3749513695
 21
201.9775886981
 31
0.0
  0
LINE
  5
19B
330
1F
100
AcDbEntity
  8
0
  6
Continuous
 62
     7
370
    15
100
AcDbLine
 10
257.374951469
 20
201.9775887211
 30
0.0
 11
257.5965538925
 21
201.5024811051
 31
0.0
  0
LINE
  5
19C
330
1F
100
AcDbEntity
  8
0
  6
Continuous
 62
     7
370
    15
100
AcDbLine
 10
257.5965538925
 20
201.5024811051
 30
0.0
 11
257.5214986367
 21
201.4850424487
 31
0.0
  0
LINE
  5
19D
330
1F
100
AcDbEntity
  8
0
  6
Continuous
 62
     7
370
    15
100
AcDbLine
 10
257.5214986367
 20
201.4850424487
 30
0.0
 11
257.1639410398
 21
201.6411259032
 31
0.0
  0
SPLINE
  5
19E
330
1F
100
AcDbEntity
  8
0
  6
Continuous
 62
     7
370
    15
100
AcDbSpline
210
0.0
220
0.0
230
1.0
 70
     8
 71
     3
 72
    10
 73
     6
 74
     0
 42
0.00000001
 43
0.00000001
 12
1.0
 22
0.0
 32
0.0
 13
1.0
 23
0.0
 33
0.0
 40
0.0
 40
0.0
 40
0.0
 40
0.0
 40
0.5008654000467206
 40
0.7508974515439882
 40
1.0
 40
1.0
 40
1.0
 40
1.0
 10
257.1639410398011
 20
201.6411259032003
 30
0.0
 10
257.1140030976586
 20
201.6617856259726
 30
0.0
 10
257.0391361304323
 20
201.6927586841593
 30
0.0
 10
256.9308992592797
 20
201.7172228261089
 30
0.0
 10
256.877640119021
 20
201.7120853632949
 30
0.0
 10
256.8510601392555
 20
201.7095214154547
 30
0.0
  0
SPLINE
  5
19F
330
1F
100
AcDbEntity
  8
0
  6
Continuous
 62
     7
370
    15
100
AcDbSpline
210
0.0
220
0.0
230
1.0
 70
     8
 71
     3
 72
    14
 73
    10
 74
     0
 42
0.00000001
 43
0.00000001
 12
1.0
 22
0.0
 32
0.0
 13
1.0
 23
0.0
 33
0.0
 40
0.0
 40
0.0
 40
0.0
 40
0.0
 40
0.2492125570070459
 40
0.37426234578295
 40
0.4993439306182894
 40
0.6236829845120887
 40
0.7495543507293675
 40
0.8746949963606326
 40
1.0
 40
1.0
 40
1.0
 40
1.0
 10
256.8510601392555
 20
201.7095214154547
 30
0.0
 10
256.8368014036797
 20
201.7049451574989
 30
0.0
 10
256.8153879248062
 20
201.6980726264433
 30
0.0
 10
256.7947335344541
 20
201.6803535384498
 30
0.0
 10
256.7833967437907
 20
201.6646694075482
 30
0.0
 10
256.7766442241357
 20
201.6469969972232
 30
0.0
 10
256.7748881478494
 20
201.6282030350777
 30
0.0
 10
256.7777923596011
 20
201.6090078295675
 30
0.0
 10
256.7829586050526
 20
201.5966119420817
 30
0.0
 10
256.7855434229841
 20
201.5904099308628
 30
0.0
  0
SPLINE
  5
1A0
330
1F
100
AcDbEntity
  8
0
  6
Continuous
 62
     7
370
    15
100
AcDbSpline
210
0.0
220
0.0
230
1.0
 70
     8
 71
     3
 72
    13
 73
     9
 74
     0
 42
0.00000001
 43
0.00000001
 12
1.0
 22
0.0
 32
0.0
 13
1.0
 23
0.0
 33
0.0
 40
0.0
 40
0.0
 40
0.0
 40
0.0
 40
0.1251920359843734
 40
0.2502609561235833
 40
0.3726017186891216
 40
0.5006143358108961
 40
0.7498741992883303
 40
1.0
 40
1.0
 40
1.0
 40
1.0
 10
256.785544094685
 20
201.5904085739097
 30
0.0
 10
256.7893310120376
 20
201.5833972514847
 30
0.0
 10
256.7969011226278
 20
201.5693815016811
 30
0.0
 10
256.8148887736182
 20
201.5510584523977
 30
0.0
 10
256.8374236269095
 20
201.536333054726
 30
0.0
 10
256.8711701387586
 20
201.5218762368599
 30
0.0
 10
256.9182693614308
 20
201.5145423336766
 30
0.0
 10
256.9535261960432
 20
201.5198147633335
 30
0.0
 10
256.971185181113
 20
201.5224555493716
 30
0.0
  0
LINE
  5
1A1
330
1F
100
AcDbEntity
  8
0
  6
Continuous
 62
     7
370
    15
100
AcDbLine
 10
257.5214986367
 20
201.4850424487
 30
0.0
 11
257.5212042413
 21
201.4839162111
 31
0.0
  0
LINE
  5
1A2
330
1F
100
AcDbEntity
  8
0
  6
Continuous
 62
     7
370
    15
100
AcDbLine
 10
256.8510601393
 20
201.7095214155
 30
0.0
 11
256.8508152819
 21
201.7082889434
 31
0.0
  0
LINE
  5
1A3
330
1F
100
AcDbEntity
  8
0
  6
Continuous
 62
     7
370
    15
100
AcDbLine
 10
259.5505459451
 20
195.3252321546
 30
0.0
 11
259.4902672589
 21
195.4513050637
 31
0.0
  0
LINE
  5
1A4
330
1F
100
AcDbEntity
  8
0
  6
Continuous
 62
     7
370
    15
100
AcDbLine
 10
259.4902672589
 20
195.4513050637
 30
0.0
 11
259.9199940674
 21
195.7879179886
 31
0.0
  0
LINE
  5
1A5
330
1F
100
AcDbEntity
  8
0
  6
Continuous
 62
     7
370
    15
100
AcDbLine
 10
259.9199940674
 20
195.7879179886
 30
0.0
 11
259.8909445876
 21
195.8474256227
 31
0.0
  0
LINE
  5
1A6
330
1F
100
AcDbEntity
  8
0
  6
Continuous
 62
     7
370
    15
100
AcDbLine
 10
259.8909445876
 20
195.8474256227
 30
0.0
 11
260.0083838007
 21
195.9394208037
 31
0.0
  0
LINE
  5
1A7
330
1F
100
AcDbEntity
  8
0
  6
Continuous
 62
     7
370
    15
100
AcDbLine
 10
260.0083838007
 20
195.9394208037
 30
0.0
 11
260.0374506768
 21
195.8799035389
 31
0.0
  0
LINE
  5
1A8
330
1F
100
AcDbEntity
  8
0
  6
Continuous
 62
     7
370
    15
100
AcDbLine
 10
260.0374506768
 20
195.8799035389
 30
0.0
 11
260.1744036994
 21
195.987204713
 31
0.0
  0
LINE
  5
1A9
330
1F
100
AcDbEntity
  8
0
  6
Continuous
 62
     7
370
    15
100
AcDbLine
 10
260.1744036994
 20
195.987204713
 30
0.0
 11
260.2336256429
 21
195.8637680171
 31
0.0
  0
LINE
  5
1AA
330
1F
100
AcDbEntity
  8
0
  6
Continuous
 62
     7
370
    15
100
AcDbLine
 10
260.2336256429
 20
195.8637680171
 30
0.0
 11
260.0966482632
 21
195.7564808758
 31
0.0
  0
LINE
  5
1AB
330
1F
100
AcDbEntity
  8
0
  6
Continuous
 62
     7
370
    15
100
AcDbLine
 10
260.0966482632
 20
195.7564808758
 30
0.0
 11
260.225748101
 21
195.4724310165
 31
0.0
  0
LINE
  5
1AC
330
1F
100
AcDbEntity
  8
0
  6
Continuous
 62
     7
370
    15
100
AcDbLine
 10
260.225748101
 20
195.4724310165
 30
0.0
 11
260.1083160647
 21
195.3804300049
 31
0.0
  0
LINE
  5
1AD
330
1F
100
AcDbEntity
  8
0
  6
Continuous
 62
     7
370
    15
100
AcDbLine
 10
260.1083160647
 20
195.3804300049
 30
0.0
 11
259.5505460512
 21
195.3252321643
 31
0.0
  0
LINE
  5
1AE
330
1F
100
AcDbEntity
  8
0
  6
Continuous
 62
     7
370
    15
100
AcDbLine
 10
260.0484125069
 20
195.5148465706
 30
0.0
 11
259.9791717448
 21
195.6645068067
 31
0.0
  0
LINE
  5
1AF
330
1F
100
AcDbEntity
  8
0
  6
Continuous
 62
     7
370
    15
100
AcDbLine
 10
259.9791717448
 20
195.6645068067
 30
0.0
 11
259.7554214465
 21
195.489298611
 31
0.0
  0
LINE
  5
1B0
330
1F
100
AcDbEntity
  8
0
  6
Continuous
 62
     7
370
    15
100
AcDbLine
 10
259.7554214465
 20
195.489298611
 30
0.0
 11
260.0484125069
 21
195.5148465706
 31
0.0
  0
LINE
  5
1B1
330
1F
100
AcDbEntity
  8
0
  6
Continuous
 62
     7
370
    15
100
AcDbLine
 10
259.9199940674
 20
195.7879179886
 30
0.0
 11
259.9188901285
 21
195.7885278228
 31
0.0
  0
LINE
  5
1B2
330
1F
100
AcDbEntity
  8
0
  6
Continuous
 62
     7
370
    15
100
AcDbLine
 10
259.4902672589
 20
195.4513050637
 30
0.0
 11
259.489162475
 21
195.45191671
 31
0.0
  0
LINE
  5
1B3
330
1F
100
AcDbEntity
  8
0
  6
Continuous
 62
     7
370
    15
100
AcDbLine
 10
259.5505459451
 20
195.3252321546
 30
0.0
 11
259.549423561
 21
195.3258815446
 31
0.0
  0
LINE
  5
1B4
330
1F
100
AcDbEntity
  8
0
  6
Continuous
 62
     7
370
    15
100
AcDbLine
 10
257.5965538925
 20
201.5024811051
 30
0.0
 11
257.5962593166
 21
201.5013552547
 31
0.0
  0
LINE
  5
1B5
330
1F
100
AcDbEntity
  8
0
  6
Continuous
 62
     7
370
    15
100
AcDbLine
 10
260.0083838007
 20
195.9394208037
 30
0.0
 11
260.0072888349
 21
195.9400113951
 31
0.0
  0
LINE
  5
1B6
330
1F
100
AcDbEntity
  8
0
  6
Continuous
 62
     7
370
    15
100
AcDbLine
 10
259.8909445876
 20
195.8474256227
 30
0.0
 11
259.889849296
 21
195.8480169128
 31
0.0
  0
LINE
  5
1B7
330
1F
100
AcDbEntity
  8
0
  6
Continuous
 62
     7
370
    15
100
AcDbLine
 10
257.230035147
 20
201.9439928688
 30
0.0
 11
257.2298098831
 21
201.9427183784
 31
0.0
  0
LINE
  5
1B8
330
1F
100
AcDbEntity
  8
0
  6
Continuous
 62
     7
370
    15
100
AcDbLine
 10
259.7542995382
 20
195.4899469807
 30
0.0
 11
260.0472692766
 21
195.5155406654
 31
0.0
  0
LINE
  5
1B9
330
1F
100
AcDbEntity
  8
0
  6
Continuous
 62
     7
370
    15
100
AcDbLine
 10
260.0472692766
 20
195.5155406654
 30
0.0
 11
260.0484125069
 21
195.5148465706
 31
0.0
  0
LINE
  5
1BA
330
1F
100
AcDbEntity
  8
0
  6
Continuous
 62
     7
370
    15
100
AcDbLine
 10
260.0472692766
 20
195.5155406654
 30
0.0
 11
259.9780499559
 21
195.6651549205
 31
0.0
  0
LINE
  5
1BB
330
1F
100
AcDbEntity
  8
0
  6
Continuous
 62
     7
370
    15
100
AcDbLine
 10
260.1744036994
 20
195.987204713
 30
0.0
 11
260.1733002898
 21
195.9878134122
 31
0.0
  0
SPLINE
  5
1BC
330
1F
100
AcDbEntity
  8
0
  6
Continuous
 62
     7
370
    15
100
AcDbSpline
210
0.0
220
0.0
230
1.0
 70
     8
 71
     3
 72
    12
 73
     8
 74
     0
 42
0.00000001
 43
0.00000001
 12
1.0
 22
0.0
 32
0.0
 13
1.0
 23
0.0
 33
0.0
 40
0.0
 40
0.0
 40
0.0
 40
0.0
 40
0.030471745951532
 40
0.0888135668586137
 40
0.392555617548583
 40
0.6962774394173711
 40
0.9999999999999999
 40
0.9999999999999999
 40
0.9999999999999999
 40
0.9999999999999999
 10
257.4305517115801
 20
203.2929797815785
 30
0.0
 10
257.4296998672551
 20
203.2949223386109
 30
0.0
 10
257.4272170645621
 20
203.3005841546141
 30
0.0
 10
257.4148473571645
 20
203.3252784854792
 30
0.0
 10
257.3857006406831
 20
203.3646408540548
 30
0.0
 10
257.3317151658118
 20
203.4077053474987
 30
0.0
 10
257.2901315615589
 20
203.4217323972473
 30
0.0
 10
257.2693397341475
 20
203.4287459306507
 30
0.0
  0
SPLINE
  5
1BD
330
1F
100
AcDbEntity
  8
0
  6
Continuous
 62
     7
370
    15
100
AcDbSpline
210
0.0
220
0.0
230
1.0
 70
     8
 71
     3
 72
    11
 73
     7
 74
     0
 42
0.00000001
 43
0.00000001
 12
1.0
 22
0.0
 32
0.0
 13
1.0
 23
0.0
 33
0.0
 40
0.0
 40
0.0
 40
0.0
 40
0.0
 40
0.3704320937892595
 40
0.7442498469295062
 40
0.9442480537660212
 40
1.0
 40
1.0
 40
1.0
 40
1.0
 10
257.2646266200496
 20
203.4326735750129
 30
0.0
 10
257.2649245332816
 20
203.4321161623014
 30
0.0
 10
257.2655230826001
 20
203.4309962422617
 30
0.0
 10
257.2669765186643
 20
203.4296558639526
 30
0.0
 10
257.2684811336376
 20
203.4289728849616
 30
0.0
 10
257.2691860637563
 20
203.4287865504236
 30
0.0
 10
257.2693397341475
 20
203.4287459306507
 30
0.0
  0
SPLINE
  5
1BE
330
1F
100
AcDbEntity
  8
0
  6
Continuous
 62
     7
370
    15
100
AcDbSpline
210
0.0
220
0.0
230
1.0
 70
     8
 71
     3
 72
    12
 73
     8
 74
     0
 42
0.00000001
 43
0.00000001
 12
1.0
 22
0.0
 32
0.0
 13
1.0
 23
0.0
 33
0.0
 40
0.0
 40
0.0
 40
0.0
 40
0.0
 40
0.0304717459458863
 40
0.0888135668586295
 40
0.3925556175487433
 40
0.6962774394175393
 40
1.0
 40
1.0
 40
1.0
 40
1.0
 10
261.2706532048053
 20
195.0578555538986
 30
0.0
 10
261.271593734848
 20
195.0559543516959
 30
0.0
 10
261.2743350227274
 20
195.0504130693144
 30
0.0
 10
261.2853008830103
 20
195.0250641137899
 30
0.0
 10
261.2967190585107
 20
194.9774347907854
 30
0.0
 10
261.2950071800581
 20
194.9083981949479
 30
0.0
 10
261.2790230979916
 20
194.8675268922063
 30
0.0
 10
261.2710310472391
 20
194.8470912159837
 30
0.0
  0
SPLINE
  5
1BF
330
1F
100
AcDbEntity
  8
0
  6
Continuous
 62
     7
370
    15
100
AcDbSpline
210
0.0
220
0.0
230
1.0
 70
     8
 71
     3
 72
    10
 73
     6
 74
     0
 42
0.00000001
 43
0.00000001
 12
1.0
 22
0.0
 32
0.0
 13
1.0
 23
0.0
 33
0.0
 40
0.0
 40
0.0
 40
0.0
 40
0.0
 40
0.2117958997129603
 40
0.488006909470187
 40
1.0
 40
1.0
 40
1.0
 40
1.0
 10
261.2710310472391
 20
194.8470912159837
 30
0.0
 10
261.2708080464647
 20
194.8465431722345
 30
0.0
 10
261.270294221981
 20
194.8452804039909
 30
0.0
 10
261.2702134261101
 20
194.8430470923589
 30
0.0
 10
261.2706964855246
 20
194.8417795054052
 30
0.0
 10
261.2710102660321
 20
194.8409561199879
 30
0.0
  0
SPLINE
  5
1C0
330
1F
100
AcDbEntity
  8
0
  6
Continuous
 62
     7
370
    15
100
AcDbSpline
210
0.0
220
0.0
230
1.0
 70
     8
 71
     3
 72
    12
 73
     8
 74
     0
 42
0.00000001
 43
0.00000001
 12
1.0
 22
0.0
 32
0.0
 13
1.0
 23
0.0
 33
0.0
 40
0.0
 40
0.0
 40
0.0
 40
0.0
 40
0.223892557184699
 40
0.4477848984194576
 40
0.6716824862029368
 40
0.8955821585467139
 40
1.0
 40
1.0
 40
1.0
 40
1.0
 10
257.0056574677265
 20
204.3045201473938
 30
0.0
 10
257.0000839155004
 20
204.3044530486432
 30
0.0
 10
256.9889368164239
 20
204.3043188512067
 30
0.0
 10
256.9745445232184
 20
204.3041981687287
 30
0.0
 10
256.9640660296923
 20
204.3041324305678
 30
0.0
 10
256.9593989608437
 20
204.3041135928715
 30
0.0
 10
256.9590092286575
 20
204.3041156033312
 30
0.0
 10
256.9588852785423
 20
204.3041162427362
 30
0.0
  0
LINE
  5
1C1
330
1F
100
AcDbEntity
  8
0
  6
Continuous
 62
     7
370
    15
100
AcDbLine
 10
257.0056574677
 20
204.3045201474
 30
0.0
 11
260.8246235729
 21
204.3461376557
 31
0.0
  0
LINE
  5
1C2
330
1F
100
AcDbEntity
  8
0
  6
Continuous
 62
     7
370
    15
100
AcDbLine
 10
260.8246235729
 20
204.3461376557
 30
0.0
 11
261.1203508442
 21
204.3498134185
 31
0.0
  0
LINE
  5
1C3
330
1F
100
AcDbEntity
  8
0
  6
Continuous
 62
     7
370
    15
100
AcDbLine
 10
255.6828055861
 20
203.6401759186
 30
0.0
 11
255.6828361933
 21
203.638352711
 31
0.0
  0
LINE
  5
1C4
330
1F
100
AcDbEntity
  8
0
  6
Continuous
 62
     7
370
    15
100
AcDbLine
 10
255.8584956395
 20
203.6137501465
 30
0.0
 11
255.6828055861
 21
203.6401759186
 31
0.0
  0
LINE
  5
1C5
330
1F
100
AcDbEntity
  8
0
  6
Continuous
 62
     7
370
    15
100
AcDbLine
 10
255.8584956395
 20
203.6137501465
 30
0.0
 11
255.8585205224
 21
203.6119392147
 31
0.0
  0
LINE
  5
1C6
330
1F
100
AcDbEntity
  8
0
  6
Continuous
 62
     7
370
    15
100
AcDbLine
 10
255.6828055861
 20
203.6401759186
 30
0.0
 11
255.6369243788
 21
203.7384998761
 31
0.0
  0
LINE
  5
1C7
330
1F
100
AcDbEntity
  8
0
  6
Continuous
 62
     7
370
    15
100
AcDbLine
 10
255.6369243788
 20
203.7384998761
 30
0.0
 11
256.5205109043
 21
203.8169439642
 31
0.0
  0
LINE
  5
1C8
330
1F
100
AcDbEntity
  8
0
  6
Continuous
 62
     7
370
    15
100
AcDbLine
 10
256.5205109043
 20
203.8169439642
 30
0.0
 11
256.5510048551
 21
203.7527224728
 31
0.0
  0
LINE
  5
1C9
330
1F
100
AcDbEntity
  8
0
  6
Continuous
 62
     7
370
    15
100
AcDbLine
 10
256.5510048551
 20
203.7527224728
 30
0.0
 11
255.8254908868
 21
203.6882722013
 31
0.0
  0
LINE
  5
1CA
330
1F
100
AcDbEntity
  8
0
  6
Continuous
 62
     7
370
    15
100
AcDbLine
 10
255.8254908868
 20
203.6882722013
 30
0.0
 11
255.8584956395
 21
203.6137501465
 31
0.0
  0
LINE
  5
1CB
330
1F
100
AcDbEntity
  8
0
  6
Continuous
 62
     7
370
    15
100
AcDbLine
 10
255.6369243788
 20
203.7384998761
 30
0.0
 11
255.6369686293
 21
203.73664741
 31
0.0
  0
LINE
  5
1CC
330
1F
100
AcDbEntity
  8
0
  6
Continuous
 62
     7
370
    15
100
AcDbLine
 10
256.5510048551
 20
203.7527224728
 30
0.0
 11
256.5510400339
 21
203.7508894612
 31
0.0
  0
LINE
  5
1CD
330
1F
100
AcDbEntity
  8
0
  6
Continuous
 62
     7
370
    15
100
AcDbLine
 10
260.5321694942
 20
193.2520881265
 30
0.0
 11
260.4640918947
 21
193.3911789765
 31
0.0
  0
LINE
  5
1CE
330
1F
100
AcDbEntity
  8
0
  6
Continuous
 62
     7
370
    15
100
AcDbLine
 10
260.4640918947
 20
193.3911789765
 30
0.0
 11
260.5733136347
 21
193.5025451825
 31
0.0
  0
LINE
  5
1CF
330
1F
100
AcDbEntity
  8
0
  6
Continuous
 62
     7
370
    15
100
AcDbLine
 10
260.5733136347
 20
193.5025451825
 30
0.0
 11
260.6227517427
 21
193.4038370772
 31
0.0
  0
LINE
  5
1D0
330
1F
100
AcDbEntity
  8
0
  6
Continuous
 62
     7
370
    15
100
AcDbLine
 10
260.6227517427
 20
193.4038370772
 30
0.0
 11
260.7417437361
 21
193.5076728828
 31
0.0
  0
LINE
  5
1D1
330
1F
100
AcDbEntity
  8
0
  6
Continuous
 62
     7
370
    15
100
AcDbLine
 10
260.741743802
 20
193.5076729625
 30
0.0
 11
260.7269994066
 21
193.5203442637
 31
0.0
  0
SPLINE
  5
1D2
330
1F
100
AcDbEntity
  8
0
  6
Continuous
 62
     7
370
    15
100
AcDbSpline
210
0.0
220
0.0
230
1.0
 70
     8
 71
     3
 72
    13
 73
     9
 74
     0
 42
0.00000001
 43
0.00000001
 12
1.0
 22
0.0
 32
0.0
 13
1.0
 23
0.0
 33
0.0
 40
0.0
 40
0.0
 40
0.0
 40
0.0
 40
0.2493537827004173
 40
0.3731502119427804
 40
0.4998460068465483
 40
0.6255465646134891
 40
0.7503082828075598
 40
1.0
 40
1.0
 40
1.0
 40
1.0
 10
260.7269994066286
 20
193.5203442637498
 30
0.0
 10
260.7233303968119
 20
193.5355025014695
 30
0.0
 10
260.7178398372707
 20
193.5581863346825
 30
0.0
 10
260.7327167745413
 20
193.6079542021375
 30
0.0
 10
260.7513041958278
 20
193.6496511890944
 30
0.0
 10
260.7768210721807
 20
193.6943715986087
 30
0.0
 10
260.8188267048426
 20
193.7553625288294
 30
0.0
 10
260.8580170306067
 20
193.797747163247
 30
0.0
 10
260.8841497852101
 20
193.8260099354643
 30
0.0
  0
SPLINE
  5
1D3
330
1F
100
AcDbEntity
  8
0
  6
Continuous
 62
     7
370
    15
100
AcDbSpline
210
0.0
220
0.0
230
1.0
 70
     8
 71
     3
 72
    11
 73
     7
 74
     0
 42
0.00000001
 43
0.00000001
 12
1.0
 22
0.0
 32
0.0
 13
1.0
 23
0.0
 33
0.0
 40
0.0
 40
0.0
 40
0.0
 40
0.0
 40
0.2501171894885509
 40
0.5000589672841144
 40
0.7500014861899835
 40
1.0
 40
1.0
 40
1.0
 40
1.0
 10
260.8841497852101
 20
193.8260099354643
 30
0.0
 10
260.9131926662028
 20
193.8535177785329
 30
0.0
 10
260.9712580598923
 20
193.9085141729239
 30
0.0
 10
261.0555039717939
 20
193.9560067885706
 30
0.0
 10
261.1244501303199
 20
193.9736968300527
 30
0.0
 10
261.1430786561359
 20
193.952892857148
 30
0.0
 10
261.1523939622695
 20
193.9424897056419
 30
0.0
  0
SPLINE
  5
1D4
330
1F
100
AcDbEntity
  8
0
  6
Continuous
 62
     7
370
    15
100
AcDbSpline
210
0.0
220
0.0
230
1.0
 70
     8
 71
     3
 72
    11
 73
     7
 74
     0
 42
0.00000001
 43
0.00000001
 12
1.0
 22
0.0
 32
0.0
 13
1.0
 23
0.0
 33
0.0
 40
0.0
 40
0.0
 40
0.0
 40
0.0
 40
0.2502460433366707
 40
0.5000742790981485
 40
0.7498688737994519
 40
1.0
 40
1.0
 40
1.0
 40
1.0
 10
261.1523939622695
 20
193.9424897056419
 30
0.0
 10
261.1558316202867
 20
193.9291882651937
 30
0.0
 10
261.1627011968513
 20
193.9026075922112
 30
0.0
 10
261.1387230482184
 20
193.8360555389689
 30
0.0
 10
261.0917249491912
 20
193.757194160458
 30
0.0
 10
261.0469951647757
 20
193.7029231855986
 30
0.0
 10
261.02461521735
 20
193.6757694315627
 30
0.0
  0
LINE
  5
1D5
330
1F
100
AcDbEntity
  8
0
  6
Continuous
 62
     7
370
    15
100
AcDbLine
 10
261.0246152174
 20
193.6757694316
 30
0.0
 11
261.0014021935
 21
193.7300289427
 31
0.0
  0
SPLINE
  5
1D6
330
1F
100
AcDbEntity
  8
0
  6
Continuous
 62
     7
370
    15
100
AcDbSpline
210
0.0
220
0.0
230
1.0
 70
     8
 71
     3
 72
    11
 73
     7
 74
     0
 42
0.00000001
 43
0.00000001
 12
1.0
 22
0.0
 32
0.0
 13
1.0
 23
0.0
 33
0.0
 40
0.0
 40
0.0
 40
0.0
 40
0.0
 40
0.2503042847019847
 40
0.5002979451324296
 40
0.7501213484862707
 40
1.0
 40
1.0
 40
1.0
 40
1.0
 10
261.0014021934935
 20
193.7300289427156
 30
0.0
 10
261.0087793668773
 20
193.7405747250699
 30
0.0
 10
261.0235245586713
 20
193.7616532026037
 30
0.0
 10
261.0382778316542
 20
193.7909168006001
 30
0.0
 10
261.0457403508445
 20
193.8159169736249
 30
0.0
 10
261.0430680070771
 20
193.8262560377101
 30
0.0
 10
261.0417316874634
 20
193.8314261413075
 30
0.0
  0
SPLINE
  5
1D7
330
1F
100
AcDbEntity
  8
0
  6
Continuous
 62
     7
370
    15
100
AcDbSpline
210
0.0
220
0.0
230
1.0
 70
     8
 71
     3
 72
    13
 73
     9
 74
     0
 42
0.00000001
 43
0.00000001
 12
1.0
 22
0.0
 32
0.0
 13
1.0
 23
0.0
 33
0.0
 40
0.0
 40
0.0
 40
0.0
 40
0.0
 40
0.2491886988766182
 40
0.3735724231200801
 40
0.4997234333244314
 40
0.6255280748750431
 40
0.7502519078808105
 40
1.0
 40
1.0
 40
1.0
 40
1.0
 10
261.0417314514272
 20
193.8314267494688
 30
0.0
 10
261.0374533881344
 20
193.8360935222369
 30
0.0
 10
261.0310399092016
 20
193.8430897368285
 30
0.0
 10
261.0124004338588
 20
193.8400217945291
 30
0.0
 10
260.9960524783657
 20
193.8337808571028
 30
0.0
 10
260.9776807850801
 20
193.8235299879393
 30
0.0
 10
260.9514973818277
 20
193.8049942940449
 30
0.0
 10
260.9317194981135
 20
193.7859550268119
 30
0.0
 10
260.9185289532625
 20
193.7732570904707
 30
0.0
  0
SPLINE
  5
1D8
330
1F
100
AcDbEntity
  8
0
  6
Continuous
 62
     7
370
    15
100
AcDbSpline
210
0.0
220
0.0
230
1.0
 70
     8
 71
     3
 72
    14
 73
    10
 74
     0
 42
0.00000001
 43
0.00000001
 12
1.0
 22
0.0
 32
0.0
 13
1.0
 23
0.0
 33
0.0
 40
0.0
 40
0.0
 40
0.0
 40
0.0
 40
0.2499182797636711
 40
0.4990992268411092
 40
0.6265652673727937
 40
0.7495019737158102
 40
0.8745989327641808
 40
0.9372969125677891
 40
1.0
 40
1.0
 40
1.0
 40
1.0
 10
260.9185289532625
 20
193.7732570904707
 30
0.0
 10
260.9064212168964
 20
193.7602764933564
 30
0.0
 10
260.8822414655602
 20
193.7343535957204
 30
0.0
 10
260.8585040617902
 20
193.6986079497462
 30
0.0
 10
260.8455188573995
 20
193.672746022057
 30
0.0
 10
260.8392189541955
 20
193.65515619576
 30
0.0
 10
260.837671568068
 20
193.6433042196844
 30
0.0
 10
260.8383903927649
 20
193.6355438705126
 30
0.0
 10
260.8395887251438
 20
193.6324921198126
 30
0.0
 10
260.8401879157374
 20
193.6309661823132
 30
0.0
  0
SPLINE
  5
1D9
330
1F
100
AcDbEntity
  8
0
  6
Continuous
 62
     7
370
    15
100
AcDbSpline
210
0.0
220
0.0
230
1.0
 70
     8
 71
     3
 72
    10
 73
     6
 74
     0
 42
0.00000001
 43
0.00000001
 12
1.0
 22
0.0
 32
0.0
 13
1.0
 23
0.0
 33
0.0
 40
0.0
 40
0.0
 40
0.0
 40
0.0
 40
0.2500138183758324
 40
0.5002755069556502
 40
1.0
 40
1.0
 40
1.0
 40
1.0
 10
260.8401881814132
 20
193.6309655140511
 30
0.0
 10
260.8423919753433
 20
193.6281672564207
 30
0.0
 10
260.8468017481019
 20
193.6225679668943
 30
0.0
 10
260.8647833120797
 20
193.6224909808315
 30
0.0
 10
260.8831866139238
 20
193.630607170895
 30
0.0
 10
260.8954489474305
 20
193.6360150824863
 30
0.0
  0
LINE
  5
1DA
330
1F
100
AcDbEntity
  8
0
  6
Continuous
 62
     7
370
    15
100
AcDbLine
 10
260.895449021
 20
193.6360151178
 30
0.0
 11
260.89254077
 21
193.571168508
 31
0.0
  0
LINE
  5
1DB
330
1F
100
AcDbEntity
  8
0
  6
Continuous
 62
     7
370
    15
100
AcDbLine
 10
260.89254077
 20
193.571168508
 30
0.0
 11
260.5321694942
 21
193.2520881265
 31
0.0
  0
LINE
  5
1DC
330
1F
100
AcDbEntity
  8
0
  6
Continuous
 62
     7
370
    15
100
AcDbLine
 10
260.5733136347
 20
193.5025451825
 30
0.0
 11
260.5719220931
 21
193.5037717825
 31
0.0
  0
LINE
  5
1DD
330
1F
100
AcDbEntity
  8
0
  6
Continuous
 62
     7
370
    15
100
AcDbLine
 10
260.4640918947
 20
193.3911789765
 30
0.0
 11
260.4627001901
 21
193.3924059262
 31
0.0
  0
LINE
  5
1DE
330
1F
100
AcDbEntity
  8
0
  6
Continuous
 62
     7
370
    15
100
AcDbLine
 10
260.5321694942
 20
193.2520881265
 30
0.0
 11
260.5307581784
 21
193.2533571325
 31
0.0
  0
LINE
  5
1DF
330
1F
100
AcDbEntity
  8
0
  6
Continuous
 62
     7
370
    15
100
AcDbLine
 10
260.8841497852
 20
193.8260099355
 30
0.0
 11
260.8827593652
 21
193.8272341304
 31
0.0
  0
LINE
  5
1E0
330
1F
100
AcDbEntity
  8
0
  6
Continuous
 62
     7
370
    15
100
AcDbLine
 10
260.7269994066
 20
193.5203442637
 30
0.0
 11
260.7255947177
 21
193.5215990584
 31
0.0
  0
LINE
  5
1E1
330
1F
100
AcDbEntity
  8
0
  6
Continuous
 62
     7
370
    15
100
AcDbLine
 10
261.5772136863
 20
203.6491070989
 30
0.0
 11
264.2088854961
 21
198.0054686901
 31
0.0
  0
LINE
  5
1E2
330
1F
100
AcDbEntity
  8
0
  6
Continuous
 62
     7
370
    15
100
AcDbLine
 10
261.0417314514
 20
193.8314267495
 30
0.0
 11
261.0403259135
 21
193.8326833649
 31
0.0
  0
LINE
  5
1E3
330
1F
100
AcDbEntity
  8
0
  6
Continuous
 62
     7
370
    15
100
AcDbLine
 10
264.2088854961
 20
198.0054686901
 30
0.0
 11
264.4866090347
 21
197.4098886397
 31
0.0
  0
LINE
  5
1E4
330
1F
100
AcDbEntity
  8
0
  6
Continuous
 62
     7
370
    15
100
AcDbLine
 10
261.304541756
 20
204.2338539402
 30
0.0
 11
261.5772136863
 21
203.6491070989
 31
0.0
  0
SPLINE
  5
1E5
330
1F
100
AcDbEntity
  8
0
  6
Continuous
 62
     7
370
    15
100
AcDbSpline
210
0.0
220
0.0
230
1.0
 70
     8
 71
     3
 72
    11
 73
     7
 74
     0
 42
0.00000001
 43
0.00000001
 12
1.0
 22
0.0
 32
0.0
 13
1.0
 23
0.0
 33
0.0
 40
0.0
 40
0.0
 40
0.0
 40
0.0
 40
0.2933118760925855
 40
0.5865991201420484
 40
0.8805021461502134
 40
1.0
 40
1.0
 40
1.0
 40
1.0
 10
261.1203508442492
 20
204.3498134184532
 30
0.0
 10
261.1428910179862
 20
204.3478793335808
 30
0.0
 10
261.1879694725586
 20
204.3440113262585
 30
0.0
 10
261.2481207685
 20
204.3101704516943
 30
0.0
 10
261.2858103804192
 20
204.2700503562751
 30
0.0
 10
261.300341409809
 20
204.2419706681551
 30
0.0
 10
261.3045417560369
 20
204.2338539402269
 30
0.0
  0
LINE
  5
1E6
330
1F
100
AcDbEntity
  8
0
  6
Continuous
 62
     7
370
    15
100
AcDbLine
 10
260.895449021
 20
193.6360151178
 30
0.0
 11
260.8940389413
 21
193.6372814731
 31
0.0
  0
LINE
  5
1E7
330
1F
100
AcDbEntity
  8
0
  6
Continuous
 62
     7
370
    15
100
AcDbLine
 10
261.0014021935
 20
193.7300289427
 30
0.0
 11
260.9999907295
 21
193.7312982666
 31
0.0
  0
LINE
  5
1E8
330
1F
100
AcDbEntity
  8
0
  6
Continuous
 62
     7
370
    15
100
AcDbLine
 10
261.0246152174
 20
193.6757694316
 30
0.0
 11
261.0231961166
 21
193.6770551325
 31
0.0
  0
LINE
  5
1E9
330
1F
100
AcDbEntity
  8
0
  6
Continuous
 62
     7
370
    15
100
AcDbLine
 10
82.5082516791
 20
223.5000522566
 30
0.0
 11
82.5082516791
 21
223.5400522566
 31
0.0
  0
LINE
  5
1EA
330
1F
100
AcDbEntity
  8
0
  6
Continuous
 62
     7
370
    15
100
AcDbLine
 10
82.5945639363
 20
223.5000522566
 30
0.0
 11
82.5082516791
 21
223.5000522566
 31
0.0
  0
LINE
  5
1EB
330
1F
100
AcDbEntity
  8
0
  6
Continuous
 62
     7
370
    15
100
AcDbLine
 10
85.0582516791
 20
223.5000522566
 30
0.0
 11
85.1082516789
 21
223.5000522566
 31
0.0
  0
LINE
  5
1EC
330
1F
100
AcDbEntity
  8
0
  6
Continuous
 62
     7
370
    15
100
AcDbLine
 10
85.0582516791
 20
223.6600522566
 30
0.0
 11
85.1082516789
 21
223.6600522566
 31
0.0
  0
LINE
  5
1ED
330
1F
100
AcDbEntity
  8
0
  6
Continuous
 62
     7
370
    15
100
AcDbLine
 10
82.5082516791
 20
224.3100522566
 30
0.0
 11
82.5082516791
 21
224.0838969754
 31
0.0
  0
LINE
  5
1EE
330
1F
100
AcDbEntity
  8
0
  6
Continuous
 62
     7
370
    15
100
AcDbLine
 10
96.6082516791
 20
223.9600522566
 30
0.0
 11
96.6082516791
 21
223.5000522566
 31
0.0
  0
LINE
  5
1EF
330
1F
100
AcDbEntity
  8
0
  6
Continuous
 62
     7
370
    15
100
AcDbLine
 10
96.6082516791
 20
223.5000522566
 30
0.0
 11
85.1082516789
 21
223.5000522566
 31
0.0
  0
LINE
  5
1F0
330
1F
100
AcDbEntity
  8
0
  6
Continuous
 62
     7
370
    15
100
AcDbLine
 10
85.1082516789
 20
223.5000522566
 30
0.0
 11
85.1082516789
 21
223.9600522566
 31
0.0
  0
LINE
  5
1F1
330
1F
100
AcDbEntity
  8
0
  6
Continuous
 62
     7
370
    15
100
AcDbLine
 10
83.0282516791
 20
226.5800522566
 30
0.0
 11
83.0282516791
 21
227.0400522566
 31
0.0
  0
LINE
  5
1F2
330
1F
100
AcDbEntity
  8
0
  6
Continuous
 62
     7
370
    15
100
AcDbLine
 10
96.0882516791
 20
227.0400522566
 30
0.0
 11
96.0882516791
 21
226.5800522566
 31
0.0
  0
LINE
  5
1F3
330
1F
100
AcDbEntity
  8
0
  6
Continuous
 62
     7
370
    15
100
AcDbLine
 10
84.9882516789
 20
223.9100522566
 30
0.0
 11
82.9082516791
 21
223.9100522566
 31
0.0
  0
ARC
  5
1F4
330
1F
100
AcDbEntity
  8
0
  6
Continuous
 62
     7
370
    15
100
AcDbCircle
 10
82.9082516791
 20
224.3100522566
 30
0.0
 40
0.4000000000000341
100
AcDbArc
 50
180.0
 51
270.0
  0
LINE
  5
1F5
330
1F
100
AcDbEntity
  8
0
  6
Continuous
 62
     7
370
    15
100
AcDbLine
 10
82.5082516791
 20
224.3100522566
 30
0.0
 11
82.5082516791
 21
226.6400522566
 31
0.0
  0
ARC
  5
1F6
330
1F
100
AcDbEntity
  8
0
  6
Continuous
 62
     7
370
    15
100
AcDbCircle
 10
82.9082516791
 20
226.6400522566
 30
0.0
 40
0.4000000000000057
100
AcDbArc
 50
90.0
 51
180.0
  0
LINE
  5
1F7
330
1F
100
AcDbEntity
  8
0
  6
Continuous
 62
     7
370
    15
100
AcDbLine
 10
82.9082516791
 20
227.0400522566
 30
0.0
 11
82.9082516791
 21
226.4600522566
 31
0.0
  0
ARC
  5
1F8
330
1F
100
AcDbEntity
  8
0
  6
Continuous
 62
     7
370
    15
100
AcDbCircle
 10
82.9682516791
 20
226.4600522566
 30
0.0
 40
0.0600000000000023
100
AcDbArc
 50
180.0
 51
0.0
  0
LINE
  5
1F9
330
1F
100
AcDbEntity
  8
0
  6
Continuous
 62
     7
370
    15
100
AcDbLine
 10
83.0282516791
 20
226.4600522566
 30
0.0
 11
83.0282516791
 21
226.5800522566
 31
0.0
  0
LINE
  5
1FA
330
1F
100
AcDbEntity
  8
0
  6
Continuous
 62
     7
370
    15
100
AcDbLine
 10
96.0882516791
 20
226.5800522566
 30
0.0
 11
96.0882516791
 21
226.4600522566
 31
0.0
  0
ARC
  5
1FB
330
1F
100
AcDbEntity
  8
0
  6
Continuous
 62
     7
370
    15
100
AcDbCircle
 10
96.1482516791
 20
226.4600522566
 30
0.0
 40
0.0600000000000023
100
AcDbArc
 50
180.0
 51
0.0
  0
LINE
  5
1FC
330
1F
100
AcDbEntity
  8
0
  6
Continuous
 62
     7
370
    15
100
AcDbLine
 10
96.2082516791
 20
226.4600522566
 30
0.0
 11
96.2082516791
 21
227.0400522566
 31
0.0
  0
ARC
  5
1FD
330
1F
100
AcDbEntity
  8
0
  6
Continuous
 62
     7
370
    15
100
AcDbCircle
 10
96.2082516791
 20
226.6400522566
 30
0.0
 40
0.4000000000000199
100
AcDbArc
 50
0.0
 51
90.0
  0
LINE
  5
1FE
330
1F
100
AcDbEntity
  8
0
  6
Continuous
 62
     7
370
    15
100
AcDbLine
 10
96.6082516791
 20
226.6400522566
 30
0.0
 11
96.6082516791
 21
223.9600522566
 31
0.0
  0
LINE
  5
1FF
330
1F
100
AcDbEntity
  8
0
  6
Continuous
 62
     7
370
    15
100
AcDbLine
 10
85.1082516789
 20
223.9600522566
 30
0.0
 11
85.1082516789
 21
224.0800522566
 31
0.0
  0
ARC
  5
200
330
1F
100
AcDbEntity
  8
0
  6
Continuous
 62
     7
370
    15
100
AcDbCircle
 10
85.0482516789
 20
224.0800522566
 30
0.0
 40
0.0600000000000023
100
AcDbArc
 50
0.0
 51
180.0
  0
LINE
  5
201
330
1F
100
AcDbEntity
  8
0
  6
Continuous
 62
     7
370
    15
100
AcDbLine
 10
84.9882516789
 20
224.0800522566
 30
0.0
 11
84.9882516789
 21
223.9100522566
 31
0.0
  0
LINE
  5
202
330
1F
100
AcDbEntity
  8
0
  6
Continuous
 62
     7
370
    15
100
AcDbLine
 10
88.0582518598
 20
229.7400522566
 30
0.0
 11
91.0582516791
 21
229.7400522566
 31
0.0
  0
LINE
  5
203
330
1F
100
AcDbEntity
  8
0
  6
Continuous
 62
     7
370
    15
100
AcDbLine
 10
95.5712592692
 20
234.1494062031
 30
0.0
 11
96.1582516791
 21
227.4400522566
 31
0.0
  0
LINE
  5
204
330
1F
100
AcDbEntity
  8
0
  6
Continuous
 62
     7
370
    15
100
AcDbLine
 10
82.9582516791
 20
227.4400522566
 30
0.0
 11
83.7919438093
 21
236.9691969083
 31
0.0
  0
ARC
  5
205
330
1F
100
AcDbEntity
  8
0
  6
Continuous
 62
     7
370
    15
100
AcDbCircle
 10
95.17278139
 20
234.114543906
 30
0.0
 40
0.4000000000000102
100
AcDbArc
 50
5.0
 51
75.6
  0
LINE
  5
206
330
1F
100
AcDbEntity
  8
0
  6
Continuous
 62
     7
370
    15
100
AcDbLine
 10
84.2898976434
 20
237.3217678757
 30
0.0
 11
95.2722573449
 21
234.5019771705
 31
0.0
  0
ARC
  5
207
330
1F
100
AcDbEntity
  8
0
  6
Continuous
 62
     7
370
    15
100
AcDbCircle
 10
84.1904216885
 20
236.9343346112
 30
0.0
 40
0.4000000000000093
100
AcDbArc
 50
75.6
 51
175.0
  0
LINE
  5
208
330
1F
100
AcDbEntity
  8
0
  6
Continuous
 62
     7
370
    15
100
AcDbLine
 10
103.8182516791
 20
223.4400522566
 30
0.0
 11
103.8182516791
 21
223.8400522566
 31
0.0
  0
LINE
  5
209
330
1F
100
AcDbEntity
  8
0
  6
Continuous
 62
     7
370
    15
100
AcDbLine
 10
103.8182516791
 20
223.4400522566
 30
0.0
 11
248.0982516791
 21
223.4400522566
 31
0.0
  0
LINE
  5
20A
330
1F
100
AcDbEntity
  8
0
  6
Continuous
 62
     7
370
    15
100
AcDbLine
 10
248.0982516791
 20
223.4400522566
 30
0.0
 11
248.0982516791
 21
223.8400522566
 31
0.0
  0
LINE
  5
20B
330
1F
100
AcDbEntity
  8
0
  6
Continuous
 62
     7
370
    15
100
AcDbLine
 10
103.8182516791
 20
223.8400522566
 30
0.0
 11
248.0982516791
 21
223.8400522566
 31
0.0
  0
LINE
  5
20C
330
1F
100
AcDbEntity
  8
0
  6
Continuous
 62
     7
370
    15
100
AcDbLine
 10
175.1588805249
 20
219.4400522566
 30
0.0
 11
175.9988805249
 21
219.4400522566
 31
0.0
  0
LINE
  5
20D
330
1F
100
AcDbEntity
  8
0
  6
Continuous
 62
     7
370
    15
100
AcDbLine
 10
96.2082516791
 20
227.4400522566
 30
0.0
 11
82.9082516791
 21
227.4400522566
 31
0.0
  0
LINE
  5
20E
330
1F
100
AcDbEntity
  8
0
  6
Continuous
 62
     7
370
    15
100
AcDbLine
 10
96.2082516791
 20
227.0400522566
 30
0.0
 11
82.9082516791
 21
227.0400522566
 31
0.0
  0
LINE
  5
20F
330
1F
100
AcDbEntity
  8
0
  6
Continuous
 62
     7
370
    15
100
AcDbLine
 10
82.0582516791
 20
226.5900522566
 30
0.0
 11
82.0582516791
 21
224.2900522566
 31
0.0
  0
LINE
  5
210
330
1F
100
AcDbEntity
  8
0
  6
Continuous
 62
     7
370
    15
100
AcDbLine
 10
82.4582516791
 20
226.5900522566
 30
0.0
 11
82.4582516791
 21
224.2900522566
 31
0.0
  0
LINE
  5
211
330
1F
100
AcDbEntity
  8
0
  6
Continuous
 62
     7
370
    15
100
AcDbLine
 10
82.9082516791
 20
223.4400522566
 30
0.0
 11
84.6582516791
 21
223.4400522566
 31
0.0
  0
LINE
  5
212
330
1F
100
AcDbEntity
  8
0
  6
Continuous
 62
     7
370
    15
100
AcDbLine
 10
82.9082516791
 20
223.8400522566
 30
0.0
 11
84.6582516791
 21
223.8400522566
 31
0.0
  0
LINE
  5
213
330
1F
100
AcDbEntity
  8
0
  6
Continuous
 62
     7
370
    15
100
AcDbLine
 10
85.0582516791
 20
223.4400522566
 30
0.0
 11
85.0582516791
 21
223.8400522566
 31
0.0
  0
LINE
  5
214
330
1F
100
AcDbEntity
  8
0
  6
Continuous
 62
     7
370
    15
100
AcDbLine
 10
84.6582516791
 20
223.8400522566
 30
0.0
 11
85.0582516791
 21
223.8400522566
 31
0.0
  0
LINE
  5
215
330
1F
100
AcDbEntity
  8
0
  6
Continuous
 62
     7
370
    15
100
AcDbLine
 10
84.6582516791
 20
223.4400522566
 30
0.0
 11
85.0582516791
 21
223.4400522566
 31
0.0
  0
ARC
  5
216
330
1F
100
AcDbEntity
  8
0
  6
Continuous
 62
     7
370
    15
100
AcDbCircle
 10
82.9082516791
 20
224.2900522566
 30
0.0
 40
0.8500000000000085
100
AcDbArc
 50
180.0
 51
270.0
  0
ARC
  5
217
330
1F
100
AcDbEntity
  8
0
  6
Continuous
 62
     7
370
    15
100
AcDbCircle
 10
82.9082516791
 20
224.2900522566
 30
0.0
 40
0.4500000000000171
100
AcDbArc
 50
180.0
 51
270.0
  0
ARC
  5
218
330
1F
100
AcDbEntity
  8
0
  6
Continuous
 62
     7
370
    15
100
AcDbCircle
 10
82.9082516791
 20
226.5900522566
 30
0.0
 40
0.8500000000000085
100
AcDbArc
 50
90.0
 51
180.0
  0
ARC
  5
219
330
1F
100
AcDbEntity
  8
0
  6
Continuous
 62
     7
370
    15
100
AcDbCircle
 10
82.9082516791
 20
226.5900522566
 30
0.0
 40
0.4500000000000171
100
AcDbArc
 50
90.0
 51
180.0
  0
LINE
  5
21A
330
1F
100
AcDbEntity
  8
0
  6
Continuous
 62
     7
370
    15
100
AcDbLine
 10
97.5082516791
 20
223.4400522566
 30
0.0
 11
103.8182516791
 21
223.4400522566
 31
0.0
  0
LINE
  5
21B
330
1F
100
AcDbEntity
  8
0
  6
Continuous
 62
     7
370
    15
100
AcDbLine
 10
97.5082516791
 20
223.8400522566
 30
0.0
 11
103.8182516791
 21
223.8400522566
 31
0.0
  0
ARC
  5
21C
330
1F
100
AcDbEntity
  8
0
  6
Continuous
 62
     7
370
    15
100
AcDbCircle
 10
96.2082516791
 20
226.5900522566
 30
0.0
 40
0.8500000000000227
100
AcDbArc
 50
0.0
 51
90.0
  0
ARC
  5
21D
330
1F
100
AcDbEntity
  8
0
  6
Continuous
 62
     7
370
    15
100
AcDbCircle
 10
96.2082516791
 20
226.5900522566
 30
0.0
 40
0.4500000000000028
100
AcDbArc
 50
0.0
 51
90.0
  0
LINE
  5
21E
330
1F
100
AcDbEntity
  8
0
  6
Continuous
 62
     7
370
    15
100
AcDbLine
 10
97.0582516791
 20
224.2900522566
 30
0.0
 11
97.0582516791
 21
226.5900522566
 31
0.0
  0
LINE
  5
21F
330
1F
100
AcDbEntity
  8
0
  6
Continuous
 62
     7
370
    15
100
AcDbLine
 10
96.6582516791
 20
224.2900522566
 30
0.0
 11
96.6582516791
 21
226.5900522566
 31
0.0
  0
ARC
  5
220
330
1F
100
AcDbEntity
  8
0
  6
Continuous
 62
     7
370
    15
100
AcDbCircle
 10
97.5082516791
 20
224.2900522566
 30
0.0
 40
0.4500000000000171
100
AcDbArc
 50
180.0
 51
270.0
  0
ARC
  5
221
330
1F
100
AcDbEntity
  8
0
  6
Continuous
 62
     7
370
    15
100
AcDbCircle
 10
97.5082516791
 20
224.2900522566
 30
0.0
 40
0.8500000000000227
100
AcDbArc
 50
180.0
 51
270.0
  0
LINE
  5
222
330
1F
100
AcDbEntity
  8
0
  6
Continuous
 62
     7
370
    15
100
AcDbLine
 10
254.2762677628
 20
211.4359918165
 30
0.0
 11
253.913744648
 21
211.2669445118
 31
0.0
  0
LINE
  5
223
330
1F
100
AcDbEntity
  8
0
  6
Continuous
 62
     7
370
    15
100
AcDbLine
 10
253.913744648
 20
211.2669445118
 30
0.0
 11
253.7446973433
 21
211.6294676266
 31
0.0
  0
LINE
  5
224
330
1F
100
AcDbEntity
  8
0
  6
Continuous
 62
     7
370
    15
100
AcDbLine
 10
254.1072204581
 20
211.7985149313
 30
0.0
 11
253.7446973433
 21
211.6294676266
 31
0.0
  0
LINE
  5
225
330
1F
100
AcDbEntity
  8
0
  6
Continuous
 62
     7
370
    15
100
AcDbLine
 10
248.0982516791
 20
223.8400522566
 30
0.0
 11
259.6588805249
 21
223.8400522566
 31
0.0
  0
LINE
  5
226
330
1F
100
AcDbEntity
  8
0
  6
Continuous
 62
     7
370
    15
100
AcDbLine
 10
248.0982516791
 20
223.4400522566
 30
0.0
 11
259.6588805249
 21
223.4400522566
 31
0.0
  0
LINE
  5
227
330
1F
100
AcDbEntity
  8
0
  6
Continuous
 62
     7
370
    15
100
AcDbLine
 10
258.9464003288
 20
214.2332497458
 30
0.0
 11
261.8340192138
 21
220.4257684285
 31
0.0
  0
LINE
  5
228
330
1F
100
AcDbEntity
  8
0
  6
Continuous
 62
     7
370
    15
100
AcDbLine
 10
258.583877214
 20
214.4022970505
 30
0.0
 11
261.471496099
 21
220.5948157331
 31
0.0
  0
ARC
  5
229
330
1F
100
AcDbEntity
  8
0
  6
Continuous
 62
     7
370
    15
100
AcDbCircle
 10
259.6588805249
 20
221.4400522566
 30
0.0
 40
2.000000000000027
100
AcDbArc
 50
335.0
 51
90.0
  0
ARC
  5
22A
330
1F
100
AcDbEntity
  8
0
  6
Continuous
 62
     7
370
    15
100
AcDbCircle
 10
259.6588805249
 20
221.4400522566
 30
0.0
 40
2.399999999999991
100
AcDbArc
 50
335.0
 51
90.0
  0
ARC
  5
22B
330
1F
100
AcDbEntity
  8
0
  6
Continuous
 62
     7
370
    15
100
AcDbCircle
 10
256.7712616399
 20
215.247533574
 30
0.0
 40
2.400000000000055
100
AcDbArc
 50
295.0
 51
335.0
  0
ARC
  5
22C
330
1F
100
AcDbEntity
  8
0
  6
Continuous
 62
     7
370
    15
100
AcDbCircle
 10
256.7712616399
 20
215.247533574
 30
0.0
 40
2.000000000000027
100
AcDbArc
 50
295.0
 51
335.0
  0
LINE
  5
22D
330
1F
100
AcDbEntity
  8
0
  6
Continuous
 62
     7
370
    15
100
AcDbLine
 10
257.6164981634
 20
213.4349179999
 30
0.0
 11
254.1072204581
 21
211.7985149313
 31
0.0
  0
LINE
  5
22E
330
1F
100
AcDbEntity
  8
0
  6
Continuous
 62
     7
370
    15
100
AcDbLine
 10
257.7855454681
 20
213.0723948851
 30
0.0
 11
254.2762677628
 21
211.4359918165
 31
0.0
  0
LINE
  5
22F
330
1F
100
AcDbEntity
  8
0
  6
Continuous
 62
     7
370
    15
100
AcDbLine
 10
67.0394360429
 20
194.2400522566
 30
0.0
 11
82.0694360429
 21
194.2400522566
 31
0.0
  0
LINE
  5
230
330
1F
100
AcDbEntity
  8
0
  6
Continuous
 62
     7
370
    15
100
AcDbLine
 10
67.0394360429
 20
194.0000522566
 30
0.0
 11
82.0694360429
 21
194.0000522566
 31
0.0
  0
LINE
  5
231
330
1F
100
AcDbEntity
  8
0
  6
Continuous
 62
     7
370
    15
100
AcDbLine
 10
66.5494360429
 20
194.4900522566
 30
0.0
 11
66.5494360429
 21
208.3900522566
 31
0.0
  0
LINE
  5
232
330
1F
100
AcDbEntity
  8
0
  6
Continuous
 62
     7
370
    15
100
AcDbLine
 10
66.7894360429
 20
194.4900522566
 30
0.0
 11
66.7894360429
 21
208.3900522566
 31
0.0
  0
LINE
  5
233
330
1F
100
AcDbEntity
  8
0
  6
Continuous
 62
     7
370
    15
100
AcDbLine
 10
82.0694360429
 20
208.6400522566
 30
0.0
 11
67.0394360429
 21
208.6400522566
 31
0.0
  0
LINE
  5
234
330
1F
100
AcDbEntity
  8
0
  6
Continuous
 62
     7
370
    15
100
AcDbLine
 10
82.0694360429
 20
208.8800522566
 30
0.0
 11
67.0394360429
 21
208.8800522566
 31
0.0
  0
ARC
  5
235
330
1F
100
AcDbEntity
  8
0
  6
Continuous
 62
     7
370
    15
100
AcDbCircle
 10
67.0394360429
 20
208.3900522566
 30
0.0
 40
0.4900000000000091
100
AcDbArc
 50
90.0
 51
180.0
  0
ARC
  5
236
330
1F
100
AcDbEntity
  8
0
  6
Continuous
 62
     7
370
    15
100
AcDbCircle
 10
67.0394360429
 20
208.3900522566
 30
0.0
 40
0.25
100
AcDbArc
 50
90.0
 51
180.0
  0
ARC
  5
237
330
1F
100
AcDbEntity
  8
0
  6
Continuous
 62
     7
370
    15
100
AcDbCircle
 10
67.0394360429
 20
194.4900522566
 30
0.0
 40
0.4900000000000375
100
AcDbArc
 50
180.0
 51
270.0
  0
ARC
  5
238
330
1F
100
AcDbEntity
  8
0
  6
Continuous
 62
     7
370
    15
100
AcDbCircle
 10
67.0394360429
 20
194.4900522566
 30
0.0
 40
0.2500000000000284
100
AcDbArc
 50
180.0
 51
270.0
  0
LINE
  5
239
330
1F
100
AcDbEntity
  8
0
  6
Continuous
 62
     7
370
    15
100
AcDbLine
 10
257.4555115185
 20
175.2224346551
 30
0.0
 11
257.4473497383
 21
175.2049316609
 31
0.0
  0
LINE
  5
23A
330
1F
100
AcDbEntity
  8
0
  6
Continuous
 62
     7
370
    15
100
AcDbLine
 10
257.4473497383
 20
175.2049316609
 30
0.0
 11
257.4472578811
 21
175.2049744946
 31
0.0
  0
LINE
  5
23B
330
1F
100
AcDbEntity
  8
0
  6
Continuous
 62
     7
370
    15
100
AcDbLine
 10
255.8072176076
 20
174.1601536099
 30
0.0
 11
255.8072176076
 21
174.1600522567
 31
0.0
  0
LINE
  5
23C
330
1F
100
AcDbEntity
  8
0
  6
Continuous
 62
     7
370
    15
100
AcDbLine
 10
255.7879051903
 20
174.1600522567
 30
0.0
 11
255.8072176076
 21
174.1600522567
 31
0.0
  0
LINE
  5
23D
330
1F
100
AcDbEntity
  8
0
  6
Continuous
 62
     7
370
    15
100
AcDbLine
 10
257.5457892162
 20
213.5733006652
 30
0.0
 11
257.6114219081
 21
213.4325509032
 31
0.0
  0
LINE
  5
23E
330
1F
100
AcDbEntity
  8
0
  6
Continuous
 62
     7
370
    15
100
AcDbLine
 10
253.7466835733
 20
211.6252081427
 30
0.0
 11
250.5347509438
 21
210.1274593601
 31
0.0
  0
SPLINE
  5
23F
330
1F
100
AcDbEntity
  8
0
  6
Continuous
 62
     7
370
    15
100
AcDbSpline
210
0.0
220
0.0
230
1.0
 70
     8
 71
     3
 72
    11
 73
     7
 74
     0
 42
0.00000001
 43
0.00000001
 12
1.0
 22
0.0
 32
0.0
 13
1.0
 23
0.0
 33
0.0
 40
0.0
 40
0.0
 40
0.0
 40
0.0
 40
0.2889759275643418
 40
0.5779517763247451
 40
0.8674414070446126
 40
1.0
 40
1.0
 40
1.0
 40
1.0
 10
250.5347509437533
 20
210.127459360098
 30
0.0
 10
250.4740453618423
 20
210.109404283235
 30
0.0
 10
250.3526342145747
 20
210.0732941344325
 30
0.0
 10
250.1229306190884
 20
210.1211714073667
 30
0.0
 10
249.9160190595483
 20
210.1995274631314
 30
0.0
 10
249.7906293750498
 20
210.2528966610216
 30
0.0
 10
249.7512464817787
 20
210.2696590720036
 30
0.0
  0
LINE
  5
240
330
1F
100
AcDbEntity
  8
0
  6
Continuous
 62
     7
370
    15
100
AcDbLine
 10
250.4424927216
 20
209.8757294553
 30
0.0
 11
250.5413065373
 21
209.6638225436
 31
0.0
  0
LINE
  5
241
330
1F
100
AcDbEntity
  8
0
  6
Continuous
 62
     7
370
    15
100
AcDbLine
 10
261.7226804625
 20
185.6852887801
 30
0.0
 11
261.5776712166
 21
185.6176698583
 31
0.0
  0
SPLINE
  5
242
330
1F
100
AcDbEntity
  8
0
  6
Continuous
 62
     7
370
    15
100
AcDbSpline
210
0.0
220
0.0
230
1.0
 70
     8
 71
     3
 72
    11
 73
     7
 74
     0
 42
0.00000001
 43
0.00000001
 12
1.0
 22
0.0
 32
0.0
 13
1.0
 23
0.0
 33
0.0
 40
0.0
 40
0.0
 40
0.0
 40
0.0
 40
0.2888077077192573
 40
0.5776153362195029
 40
0.8669345414320048
 40
1.0
 40
1.0
 40
1.0
 40
1.0
 10
249.7512464817787
 20
210.2696590720035
 30
0.0
 10
249.8407860867342
 20
210.2424173210323
 30
0.0
 10
250.0198652720848
 20
210.1879338265621
 30
0.0
 10
250.2492975898969
 20
210.0879319611393
 30
0.0
 10
250.3842750996433
 20
209.9806818150535
 30
0.0
 10
250.4285459165333
 20
209.9008721878431
 30
0.0
 10
250.4424927215567
 20
209.8757294552736
 30
0.0
  0
SPLINE
  5
243
330
1F
100
AcDbEntity
  8
0
  6
Continuous
 62
     7
370
    15
100
AcDbSpline
210
0.0
220
0.0
230
1.0
 70
     8
 71
     3
 72
    12
 73
     8
 74
     0
 42
0.00000001
 43
0.00000001
 12
1.0
 22
0.0
 32
0.0
 13
1.0
 23
0.0
 33
0.0
 40
0.0
 40
0.0
 40
0.0
 40
0.0
 40
0.209682100152916
 40
0.4420453733185742
 40
0.6744332966680988
 40
0.9068208701180657
 40
0.9999999999999999
 40
0.9999999999999999
 40
0.9999999999999999
 40
0.9999999999999999
 10
82.52943604290009
 20
222.9800522566682
 30
0.0
 10
82.50857900131457
 20
223.0305184482633
 30
0.0
 10
82.46460882585724
 20
223.1369097257607
 30
0.0
 10
82.39741519988064
 20
223.2811860117237
 30
0.0
 10
82.3280341461973
 20
223.389857798521
 30
0.0
 10
82.27235881375067
 20
223.4355821665497
 30
0.0
 10
82.24008672150639
 20
223.4390575742745
 30
0.0
 10
82.23085025646246
 20
223.4400522566683
 30
0.0
  0
LINE
  5
244
330
1F
100
AcDbEntity
  8
0
  6
Continuous
 62
     7
370
    15
100
AcDbLine
 10
82.2308502565
 20
223.4400522567
 30
0.0
 11
82.9082516791
 21
223.4400522567
 31
0.0
  0
LINE
  5
245
330
1F
100
AcDbEntity
  8
0
  6
Continuous
 62
     7
370
    15
100
AcDbLine
 10
85.0582516791
 20
223.4400522567
 30
0.0
 11
97.5082516791
 21
223.4400522567
 31
0.0
  0
LINE
  5
246
330
1F
100
AcDbEntity
  8
0
  6
Continuous
 62
     7
370
    15
100
AcDbLine
 10
259.6588805249
 20
223.4400522567
 30
0.0
 11
259.6588805249
 21
223.2800522567
 31
0.0
  0
LINE
  5
247
330
1F
100
AcDbEntity
  8
0
  6
Continuous
 62
     7
370
    15
100
AcDbLine
 10
261.5776712166
 20
184.0624346551
 30
0.0
 11
261.7226804625
 21
183.9948157332
 31
0.0
  0
LINE
  5
248
330
1F
100
AcDbEntity
  8
0
  6
Continuous
 62
     7
370
    15
100
AcDbLine
 10
257.6005207644
 20
175.1548157332
 30
0.0
 11
257.4555115185
 21
175.2224346551
 31
0.0
  0
CIRCLE
  5
249
330
1F
100
AcDbEntity
  8
0
  6
Continuous
 62
     7
370
    15
100
AcDbCircle
 10
97.5788805249
 20
219.4400522567
 30
0.0
 40
1.269532621074347
  0
CIRCLE
  5
24A
330
1F
100
AcDbEntity
  8
0
  6
Continuous
 62
     7
370
    15
100
AcDbCircle
 10
251.5788805249
 20
219.4400522567
 30
0.0
 40
1.269532621074319
  0
LINE
  5
24B
330
1F
100
AcDbEntity
  8
0
  6
Continuous
 62
     7
370
    15
100
AcDbLine
 10
261.0545945169
 20
220.7892201336
 30
0.0
 11
261.326486853
 21
220.6624346551
 31
0.0
  0
LINE
  5
24C
330
1F
100
AcDbEntity
  8
0
  6
Continuous
 62
     7
370
    15
100
AcDbLine
 10
258.4357779427
 20
214.4632893917
 30
0.0
 11
258.1638856066
 21
214.5900748703
 31
0.0
  0
ARC
  5
24D
330
1F
100
AcDbEntity
  8
0
  6
Continuous
 62
     7
370
    15
100
AcDbCircle
 10
256.7681716146
 20
215.2409069933
 30
0.0
 40
1.840000000000016
100
AcDbArc
 50
295.0
 51
335.0
  0
LINE
  5
24E
330
1F
100
AcDbEntity
  8
0
  6
Continuous
 62
     7
370
    15
100
AcDbLine
 10
257.4190037377
 20
213.8451930013
 30
0.0
 11
257.5457892162
 21
213.5733006652
 31
0.0
  0
LINE
  5
24F
330
1F
100
AcDbEntity
  8
0
  6
Continuous
 62
     7
370
    15
100
AcDbLine
 10
261.5776712166
 20
185.6176698583
 30
0.0
 11
261.3057788805
 21
185.4908843797
 31
0.0
  0
ARC
  5
250
330
1F
100
AcDbEntity
  8
0
  6
Continuous
 62
     7
370
    15
100
AcDbCircle
 10
259.9100648884
 20
184.8400522567
 30
0.0
 40
1.839999999999941
100
AcDbArc
 50
335.0
 51
25.0
  0
LINE
  5
251
330
1F
100
AcDbEntity
  8
0
  6
Continuous
 62
     7
370
    15
100
AcDbLine
 10
261.3057788805
 20
184.1892201336
 30
0.0
 11
261.5776712166
 21
184.0624346551
 31
0.0
  0
LINE
  5
252
330
1F
100
AcDbEntity
  8
0
  6
Continuous
 62
     7
370
    15
100
AcDbLine
 10
257.4555115185
 20
175.2224346551
 30
0.0
 11
257.1836191824
 21
175.3492201336
 31
0.0
  0
ARC
  5
253
330
1F
100
AcDbEntity
  8
0
  6
Continuous
 62
     7
370
    15
100
AcDbCircle
 10
255.7879051903
 20
176.0000522567
 30
0.0
 40
1.840000000000003
100
AcDbArc
 50
270.0
 51
335.0
  0
LINE
  5
254
330
1F
100
AcDbEntity
  8
0
  6
Continuous
 62
     7
370
    15
100
AcDbLine
 10
255.7879051903
 20
174.4600522567
 30
0.0
 11
255.7879051903
 21
174.1600522567
 31
0.0
  0
LINE
  5
255
330
1F
100
AcDbEntity
  8
0
  6
Continuous
 62
     7
370
    15
100
AcDbLine
 10
259.6588805249
 20
223.2800522567
 30
0.0
 11
259.6588805249
 21
222.9800522567
 31
0.0
  0
ARC
  5
256
330
1F
100
AcDbEntity
  8
0
  6
Continuous
 62
     7
370
    15
100
AcDbCircle
 10
259.6588805249
 20
221.4400522567
 30
0.0
 40
1.839999999999947
100
AcDbArc
 50
335.0
 51
90.0
  0
CIRCLE
  5
257
330
1F
100
AcDbEntity
  8
0
  6
Continuous
 62
     7
370
    15
100
AcDbCircle
 10
175.5788805249
 20
219.4400522567
 30
0.0
 40
1.269532621074319
  0
SPLINE
  5
258
330
1F
100
AcDbEntity
  8
0
  6
Continuous
 62
     7
370
    15
100
AcDbSpline
210
0.0
220
0.0
230
1.0
 70
     8
 71
     3
 72
    11
 73
     7
 74
     0
 42
0.00000001
 43
0.00000001
 12
1.0
 22
0.0
 32
0.0
 13
1.0
 23
0.0
 33
0.0
 40
0.0
 40
0.0
 40
0.0
 40
0.0
 40
0.2543211584721156
 40
0.5088664984542283
 40
0.7634130007198001
 40
1.0
 40
1.0
 40
1.0
 40
1.0
 10
82.52943604290009
 20
222.9800522566682
 30
0.0
 10
82.50411982134298
 20
223.0200472946961
 30
0.0
 10
82.45346506223746
 20
223.1000726259703
 30
0.0
 10
82.3774761283404
 20
223.2003973767894
 30
0.0
 10
82.30323110200617
 20
223.2676104261612
 30
0.0
 10
82.25438177307235
 20
223.2760073309834
 30
0.0
 10
82.23085025646246
 20
223.2800522566683
 30
0.0
  0
LINE
  5
259
330
1F
100
AcDbEntity
  8
0
  6
Continuous
 62
     7
370
    15
100
AcDbLine
 10
82.2308502565
 20
223.4400522567
 30
0.0
 11
82.2308502565
 21
223.2800522567
 31
0.0
  0
SPLINE
  5
25A
330
1F
100
AcDbEntity
  8
0
  6
Continuous
 62
     7
370
    15
100
AcDbSpline
210
0.0
220
0.0
230
1.0
 70
     8
 71
     3
 72
    12
 73
     8
 74
     0
 42
0.00000001
 43
0.00000001
 12
1.0
 22
0.0
 32
0.0
 13
1.0
 23
0.0
 33
0.0
 40
0.0
 40
0.0
 40
0.0
 40
0.0
 40
0.2096821001528771
 40
0.4420453733186065
 40
0.6744332966681242
 40
0.9068208701180783
 40
1.0
 40
1.0
 40
1.0
 40
1.0
 10
243.0271019867962
 20
78.30005225666824
 30
0.0
 10
243.0479590283817
 20
78.24958606507317
 30
0.0
 10
243.091929203839
 20
78.14319478757574
 30
0.0
 10
243.1591228298157
 20
77.99891850161276
 30
0.0
 10
243.2285038834991
 20
77.89024671481549
 30
0.0
 10
243.2841792159455
 20
77.84452234678682
 30
0.0
 10
243.3164513081899
 20
77.84104693906197
 30
0.0
 10
243.3256877732339
 20
77.84005225666823
 30
0.0
  0
SPLINE
  5
25B
330
1F
100
AcDbEntity
  8
0
  6
Continuous
 62
     7
370
    15
100
AcDbSpline
210
0.0
220
0.0
230
1.0
 70
     8
 71
     3
 72
    11
 73
     7
 74
     0
 42
0.00000001
 43
0.00000001
 12
1.0
 22
0.0
 32
0.0
 13
1.0
 23
0.0
 33
0.0
 40
0.0
 40
0.0
 40
0.0
 40
0.0
 40
0.254321158472128
 40
0.5088664984541975
 40
0.7634130007197242
 40
1.0
 40
1.0
 40
1.0
 40
1.0
 10
243.0271019867962
 20
78.30005225666824
 30
0.0
 10
243.0524182083533
 20
78.26005721864038
 30
0.0
 10
243.1030729674588
 20
78.18003188736616
 30
0.0
 10
243.1790619013559
 20
78.07970713654703
 30
0.0
 10
243.2533069276901
 20
78.01249408717528
 30
0.0
 10
243.3021562566239
 20
78.00409718235312
 30
0.0
 10
243.3256877732338
 20
78.00005225666823
 30
0.0
  0
LINE
  5
25C
330
1F
100
AcDbEntity
  8
0
  6
Continuous
 62
     7
370
    15
100
AcDbLine
 10
243.3256877732
 20
77.8400522567
 30
0.0
 11
243.3256877732
 21
78.0000522567
 31
0.0
  0
LINE
  5
25D
330
1F
100
AcDbEntity
  8
0
  6
Continuous
 62
     7
370
    15
100
AcDbLine
 10
243.3256877732
 20
77.8400522567
 30
0.0
 11
94.5908502565
 21
77.8400522567
 31
0.0
  0
SPLINE
  5
25E
330
1F
100
AcDbEntity
  8
0
  6
Continuous
 62
     7
370
    15
100
AcDbSpline
210
0.0
220
0.0
230
1.0
 70
     8
 71
     3
 72
    12
 73
     8
 74
     0
 42
0.00000001
 43
0.00000001
 12
1.0
 22
0.0
 32
0.0
 13
1.0
 23
0.0
 33
0.0
 40
0.0
 40
0.0
 40
0.0
 40
0.0
 40
0.2096821001528677
 40
0.4420453733185878
 40
0.6744332966681128
 40
0.9068208701180419
 40
1.0
 40
1.0
 40
1.0
 40
1.0
 10
94.59085025646165
 20
77.84005225666823
 30
0.0
 10
94.61170729804716
 20
77.84492025070196
 30
0.0
 10
94.65567747350451
 20
77.85518280643932
 30
0.0
 10
94.72287109948111
 20
77.93936892382509
 30
0.0
 10
94.79225215316443
 20
78.06972681940417
 30
0.0
 10
94.84792748561101
 20
78.19961502722467
 30
0.0
 10
94.88019957785535
 20
78.27770301064595
 30
0.0
 10
94.88943604289929
 20
78.30005225666824
 30
0.0
  0
SPLINE
  5
25F
330
1F
100
AcDbEntity
  8
0
  6
Continuous
 62
     7
370
    15
100
AcDbSpline
210
0.0
220
0.0
230
1.0
 70
     8
 71
     3
 72
    12
 73
     8
 74
     0
 42
0.00000001
 43
0.00000001
 12
1.0
 22
0.0
 32
0.0
 13
1.0
 23
0.0
 33
0.0
 40
0.0
 40
0.0
 40
0.0
 40
0.0
 40
0.2096821001528663
 40
0.4420453733185837
 40
0.6744332966681026
 40
0.906820870118047
 40
0.9999999999999999
 40
0.9999999999999999
 40
0.9999999999999999
 40
0.9999999999999999
 10
243.4871019867962
 20
78.00146647023061
 30
0.0
 10
243.4822339927625
 20
78.02232351181613
 30
0.0
 10
243.4719714370251
 20
78.06629368727346
 30
0.0
 10
243.3877853196394
 20
78.13348731325006
 30
0.0
 10
243.2574274240602
 20
78.2028683669334
 30
0.0
 10
243.1275392162398
 20
78.25854369937997
 30
0.0
 10
243.0494512328185
 20
78.2908157916243
 30
0.0
 10
243.0271019867962
 20
78.30005225666824
 30
0.0
  0
LINE
  5
260
330
1F
100
AcDbEntity
  8
0
  6
Continuous
 62
     7
370
    15
100
AcDbLine
 10
243.4871019868
 20
78.0014664702
 30
0.0
 11
243.3271019868
 21
78.0014664702
 31
0.0
  0
SPLINE
  5
261
330
1F
100
AcDbEntity
  8
0
  6
Continuous
 62
     7
370
    15
100
AcDbSpline
210
0.0
220
0.0
230
1.0
 70
     8
 71
     3
 72
    11
 73
     7
 74
     0
 42
0.00000001
 43
0.00000001
 12
1.0
 22
0.0
 32
0.0
 13
1.0
 23
0.0
 33
0.0
 40
0.0
 40
0.0
 40
0.0
 40
0.0
 40
0.2543211584721193
 40
0.5088664984542303
 40
0.7634130007197251
 40
1.0
 40
1.0
 40
1.0
 40
1.0
 10
243.3271019867962
 20
78.00146647023061
 30
0.0
 10
243.3224311743924
 20
78.02678269178769
 30
0.0
 10
243.3130854323112
 20
78.07743745089323
 30
0.0
 10
243.2413079090721
 20
78.15342638479031
 30
0.0
 10
243.1414633132143
 20
78.22767141112449
 30
0.0
 10
243.0642816498952
 20
78.27652074005832
 30
0.0
 10
243.0271019867962
 20
78.30005225666824
 30
0.0
  0
SPLINE
  5
262
330
1F
100
AcDbEntity
  8
0
  6
Continuous
 62
     7
370
    15
100
AcDbSpline
210
0.0
220
0.0
230
1.0
 70
     8
 71
     3
 72
    12
 73
     8
 74
     0
 42
0.00000001
 43
0.00000001
 12
1.0
 22
0.0
 32
0.0
 13
1.0
 23
0.0
 33
0.0
 40
0.0
 40
0.0
 40
0.0
 40
0.0
 40
0.2096821001528836
 40
0.4420453733186079
 40
0.6744332966681059
 40
0.9068208701180763
 40
1.0
 40
1.0
 40
1.0
 40
1.0
 10
82.06943604290008
 20
223.2786380431059
 30
0.0
 10
82.07430403693382
 20
223.2577810015204
 30
0.0
 10
82.08456659267124
 20
223.2138108260631
 30
0.0
 10
82.16875271005689
 20
223.1466172000864
 30
0.0
 10
82.29911060563605
 20
223.0772361464031
 30
0.0
 10
82.42899881345652
 20
223.0215608139565
 30
0.0
 10
82.50708679687779
 20
222.9892887217122
 30
0.0
 10
82.52943604290009
 20
222.9800522566682
 30
0.0
  0
LINE
  5
263
330
1F
100
AcDbEntity
  8
0
  6
Continuous
 62
     7
370
    15
100
AcDbLine
 10
82.0694360429
 20
223.2786380431
 30
0.0
 11
82.2294360429
 21
223.2786380431
 31
0.0
  0
SPLINE
  5
264
330
1F
100
AcDbEntity
  8
0
  6
Continuous
 62
     7
370
    15
100
AcDbSpline
210
0.0
220
0.0
230
1.0
 70
     8
 71
     3
 72
    11
 73
     7
 74
     0
 42
0.00000001
 43
0.00000001
 12
1.0
 22
0.0
 32
0.0
 13
1.0
 23
0.0
 33
0.0
 40
0.0
 40
0.0
 40
0.0
 40
0.0
 40
0.2543211584721299
 40
0.5088664984543146
 40
0.7634130007197667
 40
0.9999999999999999
 40
0.9999999999999999
 40
0.9999999999999999
 40
0.9999999999999999
 10
82.22943604290009
 20
223.2786380431059
 30
0.0
 10
82.23410685530388
 20
223.2533218215488
 30
0.0
 10
82.24345259738503
 20
223.2026670624432
 30
0.0
 10
82.31523012062415
 20
223.1266781285462
 30
0.0
 10
82.41507471648202
 20
223.052433102212
 30
0.0
 10
82.49225637980106
 20
223.0035837732782
 30
0.0
 10
82.52943604290009
 20
222.9800522566683
 30
0.0
  0
SPLINE
  5
265
330
1F
100
AcDbEntity
  8
0
  6
Continuous
 62
     7
370
    15
100
AcDbSpline
210
0.0
220
0.0
230
1.0
 70
     8
 71
     3
 72
    12
 73
     8
 74
     0
 42
0.00000001
 43
0.00000001
 12
1.0
 22
0.0
 32
0.0
 13
1.0
 23
0.0
 33
0.0
 40
0.0
 40
0.0
 40
0.0
 40
0.0
 40
0.2096821001528654
 40
0.4420453733185821
 40
0.674433296668142
 40
0.9068208701180823
 40
1.0
 40
1.0
 40
1.0
 40
1.0
 10
82.52943604290009
 20
174.4600522566681
 30
0.0
 10
82.47896985130501
 20
174.4391952150826
 30
0.0
 10
82.37257857380759
 20
174.3952250396253
 30
0.0
 10
82.22830228784461
 20
174.3280314136487
 30
0.0
 10
82.1196305010473
 20
174.2586503599653
 30
0.0
 10
82.07390613301862
 20
174.2029750275188
 30
0.0
 10
82.0704307252938
 20
174.1707029352744
 30
0.0
 10
82.06943604290008
 20
174.1614664702305
 30
0.0
  0
LINE
  5
266
330
1F
100
AcDbEntity
  8
0
  6
Continuous
 62
     7
370
    15
100
AcDbLine
 10
82.0694360429
 20
223.2786380431
 30
0.0
 11
82.0694360429
 21
174.1614664702
 31
0.0
  0
SPLINE
  5
267
330
1F
100
AcDbEntity
  8
0
  6
Continuous
 62
     7
370
    15
100
AcDbSpline
210
0.0
220
0.0
230
1.0
 70
     8
 71
     3
 72
    12
 73
     8
 74
     0
 42
0.00000001
 43
0.00000001
 12
1.0
 22
0.0
 32
0.0
 13
1.0
 23
0.0
 33
0.0
 40
0.0
 40
0.0
 40
0.0
 40
0.0
 40
0.2096821001529035
 40
0.4420453733186219
 40
0.6744332966681689
 40
0.9068208701180693
 40
1.0
 40
1.0
 40
1.0
 40
1.0
 10
94.88943604289929
 20
78.30005225666824
 30
0.0
 10
94.83896985130423
 20
78.27919521508271
 30
0.0
 10
94.73257857380679
 20
78.23522503962536
 30
0.0
 10
94.58830228784382
 20
78.16803141364878
 30
0.0
 10
94.47963050104651
 20
78.09865035996545
 30
0.0
 10
94.43390613301796
 20
78.04297502751886
 30
0.0
 10
94.43043072529305
 20
78.01070293527455
 30
0.0
 10
94.4294360428993
 20
78.00146647023061
 30
0.0
  0
SPLINE
  5
268
330
1F
100
AcDbEntity
  8
0
  6
Continuous
 62
     7
370
    15
100
AcDbSpline
210
0.0
220
0.0
230
1.0
 70
     8
 71
     3
 72
    11
 73
     7
 74
     0
 42
0.00000001
 43
0.00000001
 12
1.0
 22
0.0
 32
0.0
 13
1.0
 23
0.0
 33
0.0
 40
0.0
 40
0.0
 40
0.0
 40
0.0
 40
0.2543211584722106
 40
0.5088664984542722
 40
0.7634130007198023
 40
1.0
 40
1.0
 40
1.0
 40
1.0
 10
94.88943604289929
 20
78.30005225666824
 30
0.0
 10
94.84944100487141
 20
78.27473603511113
 30
0.0
 10
94.76941567359718
 20
78.2240812760056
 30
0.0
 10
94.66909092277808
 20
78.14809234210851
 30
0.0
 10
94.60187787340637
 20
78.07384731577434
 30
0.0
 10
94.5934809685842
 20
78.02499798684052
 30
0.0
 10
94.58943604289931
 20
78.00146647023061
 30
0.0
  0
LINE
  5
269
330
1F
100
AcDbEntity
  8
0
  6
Continuous
 62
     7
370
    15
100
AcDbLine
 10
94.4294360429
 20
78.0014664702
 30
0.0
 11
94.5894360429
 21
78.0014664702
 31
0.0
  0
LINE
  5
26A
330
1F
100
AcDbEntity
  8
0
  6
Continuous
 62
     7
370
    15
100
AcDbLine
 10
94.4294360429
 20
173.8100522567
 30
0.0
 11
94.4294360429
 21
78.0014664702
 31
0.0
  0
SPLINE
  5
26B
330
1F
100
AcDbEntity
  8
0
  6
Continuous
 62
     7
370
    15
100
AcDbSpline
210
0.0
220
0.0
230
1.0
 70
     8
 71
     3
 72
    11
 73
     7
 74
     0
 42
0.00000001
 43
0.00000001
 12
1.0
 22
0.0
 32
0.0
 13
1.0
 23
0.0
 33
0.0
 40
0.0
 40
0.0
 40
0.0
 40
0.0
 40
0.2889759275644782
 40
0.5779517763250438
 40
0.867441407044976
 40
1.0
 40
1.0
 40
1.0
 40
1.0
 10
94.4294360428993
 20
173.8100522566681
 30
0.0
 10
94.43872787364799
 20
173.8727006034702
 30
0.0
 10
94.45731153261146
 20
173.9979972799901
 30
0.0
 10
94.59778001213385
 20
174.1859456274253
 30
0.0
 10
94.7562393192617
 20
174.3403564849802
 30
0.0
 10
94.85760020940033
 20
174.4314433348124
 30
0.0
 10
94.88943604289929
 20
174.4600522566681
 30
0.0
  0
LINE
  5
26C
330
1F
100
AcDbEntity
  8
0
  6
Continuous
 62
     7
370
    15
100
AcDbLine
 10
94.5908502565
 20
77.8400522567
 30
0.0
 11
94.5908502565
 21
78.0000522567
 31
0.0
  0
SPLINE
  5
26D
330
1F
100
AcDbEntity
  8
0
  6
Continuous
 62
     7
370
    15
100
AcDbSpline
210
0.0
220
0.0
230
1.0
 70
     8
 71
     3
 72
    11
 73
     7
 74
     0
 42
0.00000001
 43
0.00000001
 12
1.0
 22
0.0
 32
0.0
 13
1.0
 23
0.0
 33
0.0
 40
0.0
 40
0.0
 40
0.0
 40
0.0
 40
0.2543211584721619
 40
0.5088664984542497
 40
0.7634130007196864
 40
1.0
 40
1.0
 40
1.0
 40
1.0
 10
94.59085025646165
 20
78.00005225666823
 30
0.0
 10
94.61616647801876
 20
78.00472306907206
 30
0.0
 10
94.66682123712434
 20
78.01406881115322
 30
0.0
 10
94.74281017102132
 20
78.08584633439227
 30
0.0
 10
94.81705519735556
 20
78.18569093025017
 30
0.0
 10
94.86590452628937
 20
78.26287259356921
 30
0.0
 10
94.88943604289929
 20
78.30005225666824
 30
0.0
  0
LINE
  5
26E
330
1F
100
AcDbEntity
  8
0
  6
Continuous
 62
     7
370
    15
100
AcDbLine
 10
261.326486853
 20
220.6624346551
 30
0.0
 11
261.471496099
 21
220.5948157332
 31
0.0
  0
LINE
  5
26F
330
1F
100
AcDbEntity
  8
0
  6
Continuous
 62
     7
370
    15
100
AcDbLine
 10
258.5807871887
 20
214.3956704699
 30
0.0
 11
258.4357779427
 21
214.4632893917
 31
0.0
  0
SPLINE
  5
270
330
1F
100
AcDbEntity
  8
0
  6
Continuous
 62
     7
370
    15
100
AcDbSpline
210
0.0
220
0.0
230
1.0
 70
     8
 71
     3
 72
    11
 73
     7
 74
     0
 42
0.00000001
 43
0.00000001
 12
1.0
 22
0.0
 32
0.0
 13
1.0
 23
0.0
 33
0.0
 40
0.0
 40
0.0
 40
0.0
 40
0.0
 40
0.2543211584721789
 40
0.508866498454275
 40
0.763413000719758
 40
1.0
 40
1.0
 40
1.0
 40
1.0
 10
82.52943604290009
 20
174.4600522566681
 30
0.0
 10
82.4894410048722
 20
174.434736035111
 30
0.0
 10
82.40941567359798
 20
174.3840812760055
 30
0.0
 10
82.30909092277886
 20
174.3080923421084
 30
0.0
 10
82.24187787340715
 20
174.2338473157742
 30
0.0
 10
82.23348096858498
 20
174.1849979868404
 30
0.0
 10
82.22943604290009
 20
174.1614664702305
 30
0.0
  0
LINE
  5
271
330
1F
100
AcDbEntity
  8
0
  6
Continuous
 62
     7
370
    15
100
AcDbLine
 10
82.0694360429
 20
174.1614664702
 30
0.0
 11
82.2294360429
 21
174.1614664702
 31
0.0
  0
SPLINE
  5
272
330
1F
100
AcDbEntity
  8
0
  6
Continuous
 62
     7
370
    15
100
AcDbSpline
210
0.0
220
0.0
230
1.0
 70
     8
 71
     3
 72
    12
 73
     8
 74
     0
 42
0.00000001
 43
0.00000001
 12
1.0
 22
0.0
 32
0.0
 13
1.0
 23
0.0
 33
0.0
 40
0.0
 40
0.0
 40
0.0
 40
0.0
 40
0.2096821001528724
 40
0.442045373318615
 40
0.6744332966681273
 40
0.9068208701180683
 40
1.0
 40
1.0
 40
1.0
 40
1.0
 10
82.23085025646243
 20
174.0000522566681
 30
0.0
 10
82.25170729804795
 20
174.0049202507018
 30
0.0
 10
82.29567747350531
 20
174.0151828064393
 30
0.0
 10
82.36287109948186
 20
174.099368923825
 30
0.0
 10
82.43225215316525
 20
174.2297268194041
 30
0.0
 10
82.48792748561179
 20
174.3596150272246
 30
0.0
 10
82.52019957785613
 20
174.4377030106458
 30
0.0
 10
82.52943604290009
 20
174.4600522566681
 30
0.0
  0
LINE
  5
273
330
1F
100
AcDbEntity
  8
0
  6
Continuous
 62
     7
370
    15
100
AcDbLine
 10
82.2308502565
 20
174.0000522567
 30
0.0
 11
82.2308502565
 21
174.1600522567
 31
0.0
  0
SPLINE
  5
274
330
1F
100
AcDbEntity
  8
0
  6
Continuous
 62
     7
370
    15
100
AcDbSpline
210
0.0
220
0.0
230
1.0
 70
     8
 71
     3
 72
    11
 73
     7
 74
     0
 42
0.00000001
 43
0.00000001
 12
1.0
 22
0.0
 32
0.0
 13
1.0
 23
0.0
 33
0.0
 40
0.0
 40
0.0
 40
0.0
 40
0.0
 40
0.2543211584721043
 40
0.508866498454234
 40
0.7634130007197005
 40
1.0
 40
1.0
 40
1.0
 40
1.0
 10
82.23085025646243
 20
174.1600522566681
 30
0.0
 10
82.25616647801952
 20
174.1647230690719
 30
0.0
 10
82.30682123712506
 20
174.1740688111531
 30
0.0
 10
82.38281017102214
 20
174.2458463343922
 30
0.0
 10
82.4570551973563
 20
174.3456909302501
 30
0.0
 10
82.50590452629014
 20
174.4228725935691
 30
0.0
 10
82.52943604290009
 20
174.4600522566681
 30
0.0
  0
LINE
  5
275
330
1F
100
AcDbEntity
  8
0
  6
Continuous
 62
     7
370
    15
100
AcDbLine
 10
255.7879051903
 20
174.1600522567
 30
0.0
 11
255.7879051903
 21
174.0000522567
 31
0.0
  0
SPLINE
  5
276
330
1F
100
AcDbEntity
  8
0
  6
Continuous
 62
     7
370
    15
100
AcDbSpline
210
0.0
220
0.0
230
1.0
 70
     8
 71
     3
 72
    11
 73
     7
 74
     0
 42
0.00000001
 43
0.00000001
 12
1.0
 22
0.0
 32
0.0
 13
1.0
 23
0.0
 33
0.0
 40
0.0
 40
0.0
 40
0.0
 40
0.0
 40
0.299940106883381
 40
0.5998801778523202
 40
0.900486652064209
 40
1.0
 40
1.0
 40
1.0
 40
1.0
 10
243.7309481406423
 20
174.0000522566681
 30
0.0
 10
243.6605399386216
 20
174.0100743676356
 30
0.0
 10
243.5197235430105
 20
174.0301185883704
 30
0.0
 10
243.3084941063946
 20
174.18084474507
 30
0.0
 10
243.1438105275057
 20
174.3401385616082
 30
0.0
 10
243.0503471560806
 20
174.4361687077501
 30
0.0
 10
243.0271019867962
 20
174.4600522566682
 30
0.0
  0
LINE
  5
277
330
1F
100
AcDbEntity
  8
0
  6
Continuous
 62
     7
370
    15
100
AcDbLine
 10
243.4871019868
 20
78.0014664702
 30
0.0
 11
243.4871019868
 21
173.8100522567
 31
0.0
  0
SPLINE
  5
278
330
1F
100
AcDbEntity
  8
0
  6
Continuous
 62
     7
370
    15
100
AcDbSpline
210
0.0
220
0.0
230
1.0
 70
     8
 71
     3
 72
    11
 73
     7
 74
     0
 42
0.00000001
 43
0.00000001
 12
1.0
 22
0.0
 32
0.0
 13
1.0
 23
0.0
 33
0.0
 40
0.0
 40
0.0
 40
0.0
 40
0.0
 40
0.2889759275644321
 40
0.577951776324949
 40
0.8674414070449277
 40
1.0
 40
1.0
 40
1.0
 40
1.0
 10
243.0271019867962
 20
174.4600522566682
 30
0.0
 10
243.0967798898305
 20
174.3974039098661
 30
0.0
 10
243.236135676898
 20
174.2721072333463
 30
0.0
 10
243.4018597751173
 20
174.0841588859111
 30
0.0
 10
243.4787368160809
 20
173.9297480283562
 30
0.0
 10
243.4851025969103
 20
173.8386611785239
 30
0.0
 10
243.4871019867962
 20
173.8100522566682
 30
0.0
  0
LINE
  5
279
330
1F
100
AcDbEntity
  8
0
  6
Continuous
 62
     7
370
    15
100
AcDbLine
 10
82.2308502565
 20
174.0000522567
 30
0.0
 11
94.2394360429
 21
174.0000522567
 31
0.0
  0
SPLINE
  5
27A
330
1F
100
AcDbEntity
  8
0
  6
Continuous
 62
     7
370
    15
100
AcDbSpline
210
0.0
220
0.0
230
1.0
 70
     8
 71
     3
 72
    11
 73
     7
 74
     0
 42
0.00000001
 43
0.00000001
 12
1.0
 22
0.0
 32
0.0
 13
1.0
 23
0.0
 33
0.0
 40
0.0
 40
0.0
 40
0.0
 40
0.0
 40
0.2889759275644406
 40
0.5779517763249481
 40
0.8674414070449313
 40
1.0
 40
1.0
 40
1.0
 40
1.0
 10
94.88943604289935
 20
174.4600522566682
 30
0.0
 10
94.82678769609731
 20
174.3903743536338
 30
0.0
 10
94.70149101957747
 20
174.2510185665664
 30
0.0
 10
94.51354267214222
 20
174.085294468347
 30
0.0
 10
94.35913181458727
 20
174.0084174273834
 30
0.0
 10
94.26804496475505
 20
174.0020516465541
 30
0.0
 10
94.23943604289931
 20
174.0000522566681
 30
0.0
  0
CIRCLE
  5
27B
330
1F
100
AcDbEntity
  8
0
  6
Continuous
 62
     7
370
    15
100
AcDbCircle
 10
251.5788805249
 20
219.4400522567
 30
0.0
 40
0.5399999999999636
  0
CIRCLE
  5
27C
330
1F
100
AcDbEntity
  8
0
  6
Continuous
 62
     7
370
    15
100
AcDbCircle
 10
97.5788805249
 20
219.4400522567
 30
0.0
 40
0.5400000000000205
  0
CIRCLE
  5
27D
330
1F
100
AcDbEntity
  8
0
  6
Continuous
 62
     7
370
    15
100
AcDbCircle
 10
175.5788805249
 20
219.4400522567
 30
0.0
 40
0.5400000000000205
  0
LWPOLYLINE
  5
27E
330
1F
100
AcDbEntity
  8
0
  6
Continuous
 62
     7
370
    15
100
AcDbPolyline
 90
        3
 70
   128
 43
0.0
 10
94.5173828116
 20
174.0550914081
 10
94.5015680773
 20
174.072184291
 10
94.4864742672
 20
174.0862732507
  0
CIRCLE
  5
27F
330
1F
100
AcDbEntity
  8
0
  6
Continuous
 62
     7
370
    15
100
AcDbCircle
 10
175.5788805249
 20
219.4400522566
 30
0.0
 40
0.5050000000000239
  0
CIRCLE
  5
280
330
1F
100
AcDbEntity
  8
0
  6
Continuous
 62
     7
370
    15
100
AcDbCircle
 10
175.5788805249
 20
219.4400522566
 30
0.0
 40
0.4200000000000159
  0
CIRCLE
  5
281
330
1F
100
AcDbEntity
  8
0
  6
Continuous
 62
     7
370
    15
100
AcDbCircle
 10
97.5788805249
 20
219.4400522566
 30
0.0
 40
0.5050000000000097
  0
CIRCLE
  5
282
330
1F
100
AcDbEntity
  8
0
  6
Continuous
 62
     7
370
    15
100
AcDbCircle
 10
97.5788805249
 20
219.4400522566
 30
0.0
 40
0.4200000000000017
  0
LINE
  5
283
330
1F
100
AcDbEntity
  8
0
  6
Continuous
 62
     7
370
    15
100
AcDbLine
 10
245.0671019868
 20
171.5028030363
 30
0.0
 11
244.8255252297
 21
171.5028030363
 31
0.0
  0
LINE
  5
284
330
1F
100
AcDbEntity
  8
0
  6
Continuous
 62
     7
370
    15
100
AcDbLine
 10
244.3655252297
 20
171.2028030363
 30
0.0
 11
244.3655252297
 21
167.3004448088
 31
0.0
  0
LINE
  5
285
330
1F
100
AcDbEntity
  8
0
  6
Continuous
 62
     7
370
    15
100
AcDbLine
 10
244.3655252297
 20
96.1996597038
 30
0.0
 11
244.3655252297
 21
90.6628428236
 31
0.0
  0
SPLINE
  5
286
330
1F
100
AcDbEntity
  8
0
  6
Continuous
 62
     7
370
    15
100
AcDbSpline
210
0.0
220
0.0
230
1.0
 70
     8
 71
     3
 72
    12
 73
     8
 74
     0
 42
0.00000001
 43
0.00000001
 12
1.0
 22
0.0
 32
0.0
 13
1.0
 23
0.0
 33
0.0
 40
0.0
 40
0.0
 40
0.0
 40
0.0
 40
0.2095297753082068
 40
0.442054217462621
 40
0.6746038676830795
 40
0.9071531680641607
 40
1.0
 40
1.0
 40
1.0
 40
1.0
 10
244.3655252296872
 20
171.2028030363368
 30
0.0
 10
244.3703863755344
 20
171.2237433827937
 30
0.0
 10
244.3806421495422
 20
171.2679221562055
 30
0.0
 10
244.4648347633902
 20
171.3354515226389
 30
0.0
 10
244.5953014777516
 20
171.4052095632082
 30
0.0
 10
244.7252090052168
 20
171.4611481319909
 30
0.0
 10
244.8032557728644
 20
171.4935559569268
 30
0.0
 10
244.8255252296872
 20
171.5028030363368
 30
0.0
  0
LWPOLYLINE
  5
287
330
1F
100
AcDbEntity
  8
0
  6
Continuous
 62
     7
370
    15
100
AcDbPolyline
 90
        3
 70
   128
 43
0.0
 10
253.0414642231
 20
171.246441902
 10
252.6233611196
 20
171.3730081814
 10
252.1225331157
 20
171.4419099451
  0
LINE
  5
288
330
1F
100
AcDbEntity
  8
0
  6
Continuous
 62
     7
370
    15
100
AcDbLine
 10
252.1225331157
 20
171.4419099451
 30
0.0
 11
247.5375271037
 21
171.6821999282
 31
0.0
  0
ARC
  5
289
330
1F
100
AcDbEntity
  8
0
  6
Continuous
 62
     7
370
    15
100
AcDbCircle
 10
247.5134525638
 20
171.2228303422
 30
0.0
 40
0.460000000000008
100
AcDbArc
 50
87.0
 51
90.0
  0
LINE
  5
28A
330
1F
100
AcDbEntity
  8
0
  6
Continuous
 62
     7
370
    15
100
AcDbLine
 10
247.5134525638
 20
171.6828303422
 30
0.0
 11
244.905525247
 21
171.6828303422
 31
0.0
  0
LINE
  5
28B
330
1F
100
AcDbEntity
  8
0
  6
Continuous
 62
     7
370
    15
100
AcDbLine
 10
245.0671019868
 20
171.5228303422
 30
0.0
 11
244.905525247
 21
171.5228303422
 31
0.0
  0
LINE
  5
28C
330
1F
100
AcDbEntity
  8
0
  6
Continuous
 62
     7
370
    15
100
AcDbLine
 10
244.905525247
 20
171.5228303422
 30
0.0
 11
244.905525247
 21
171.6828303422
 31
0.0
  0
LINE
  5
28D
330
1F
100
AcDbEntity
  8
0
  6
Continuous
 62
     7
370
    15
100
AcDbLine
 10
244.825525247
 20
171.5228303422
 30
0.0
 11
244.825525247
 21
171.6828303422
 31
0.0
  0
SPLINE
  5
28E
330
1F
100
AcDbEntity
  8
0
  6
Continuous
 62
     7
370
    15
100
AcDbSpline
210
0.0
220
0.0
230
1.0
 70
     8
 71
     3
 72
    10
 73
     6
 74
     0
 42
0.00000001
 43
0.00000001
 12
1.0
 22
0.0
 32
0.0
 13
1.0
 23
0.0
 33
0.0
 40
0.0
 40
0.0
 40
0.0
 40
0.0
 40
0.4270784715814291
 40
0.8545380482393458
 40
0.9999999999999999
 40
0.9999999999999999
 40
0.9999999999999999
 40
0.9999999999999999
 10
244.8255252469934
 20
171.5228303421762
 30
0.0
 10
244.7860450875542
 20
171.5178121027055
 30
0.0
 10
244.7070495384076
 20
171.5077711457192
 30
0.0
 10
244.6220577637037
 20
171.4555540697433
 30
0.0
 10
244.5951282708994
 20
171.409285857826
 30
0.0
 10
244.5882910054294
 20
171.3975385869065
 30
0.0
  0
SPLINE
  5
28F
330
1F
100
AcDbEntity
  8
0
  6
Continuous
 62
     7
370
    15
100
AcDbSpline
210
0.0
220
0.0
230
1.0
 70
     8
 71
     3
 72
    12
 73
     8
 74
     0
 42
0.00000001
 43
0.00000001
 12
1.0
 22
0.0
 32
0.0
 13
1.0
 23
0.0
 33
0.0
 40
0.0
 40
0.0
 40
0.0
 40
0.0
 40
0.209529775308197
 40
0.442054217462614
 40
0.6746038676830564
 40
0.907153168064156
 40
0.9999999999999999
 40
0.9999999999999999
 40
0.9999999999999999
 40
0.9999999999999999
 10
244.8255252469934
 20
171.6828303421762
 30
0.0
 10
244.7750962667531
 20
171.6779691963291
 30
0.0
 10
244.6687040207594
 20
171.6677134223214
 30
0.0
 10
244.524377929537
 20
171.5835208084732
 30
0.0
 10
244.4156451172686
 20
171.4530540941118
 30
0.0
 10
244.3699749669561
 20
171.3231465666466
 30
0.0
 10
244.3665130517788
 20
171.245099798999
 30
0.0
 10
244.3655252469934
 20
171.2228303421762
 30
0.0
  0
LINE
  5
290
330
1F
100
AcDbEntity
  8
0
  6
Continuous
 62
     7
370
    15
100
AcDbLine
 10
244.825525247
 20
171.6828303422
 30
0.0
 11
244.905525247
 21
171.6828303422
 31
0.0
  0
LINE
  5
291
330
1F
100
AcDbEntity
  8
0
  6
Continuous
 62
     7
370
    15
100
AcDbLine
 10
244.825525247
 20
171.5228303422
 30
0.0
 11
244.905525247
 21
171.5228303422
 31
0.0
  0
LINE
  5
292
330
1F
100
AcDbEntity
  8
0
  6
Continuous
 62
     7
370
    15
100
AcDbLine
 10
244.365525247
 20
171.2228303422
 30
0.0
 11
244.365525247
 21
171.2028030363
 31
0.0
  0
LINE
  5
293
330
1F
100
AcDbEntity
  8
0
  6
Continuous
 62
     7
370
    15
100
AcDbLine
 10
243.7616175192
 20
89.9000522567
 30
0.0
 11
244.1071019868
 21
89.9000522567
 31
0.0
  0
LINE
  5
294
330
1F
100
AcDbEntity
  8
0
  6
Continuous
 62
     7
370
    15
100
AcDbLine
 10
243.8656256046
 20
89.7400522567
 30
0.0
 11
244.1071019868
 21
89.7400522567
 31
0.0
  0
LINE
  5
295
330
1F
100
AcDbEntity
  8
0
  6
Continuous
 62
     7
370
    15
100
AcDbLine
 10
243.8949332399
 20
78.3474677998
 30
0.0
 11
244.7591708053
 21
78.3474677998
 31
0.0
  0
LINE
  5
296
330
1F
100
AcDbEntity
  8
0
  6
Continuous
 62
     7
370
    15
100
AcDbLine
 10
243.8949332399
 20
78.3474677998
 30
0.0
 11
243.4871019868
 21
78.3474677998
 31
0.0
  0
LINE
  5
297
330
1F
100
AcDbEntity
  8
0
  6
Continuous
 62
     7
370
    15
100
AcDbLine
 10
243.6349332399
 20
78.1854917299
 30
0.0
 11
243.4871019868
 21
78.1854917299
 31
0.0
  0
LINE
  5
298
330
1F
100
AcDbEntity
  8
0
  6
Continuous
 62
     7
370
    15
100
AcDbLine
 10
243.4871019868
 20
78.3454917299
 30
0.0
 11
243.6349332399
 21
78.3454917299
 31
0.0
  0
LINE
  5
299
330
1F
100
AcDbEntity
  8
0
  6
Continuous
 62
     7
370
    15
100
AcDbLine
 10
243.6349332399
 20
78.1854917299
 30
0.0
 11
244.9000731267
 21
78.1854917299
 31
0.0
  0
LINE
  5
29A
330
1F
100
AcDbEntity
  8
0
  6
Continuous
 62
     7
370
    15
100
AcDbLine
 10
243.6349332399
 20
78.3454917299
 30
0.0
 11
244.7602066925
 21
78.3454917299
 31
0.0
  0
CIRCLE
  5
29B
330
1F
100
AcDbEntity
  8
0
  6
Continuous
 62
     7
370
    15
100
AcDbCircle
 10
246.2671019868
 20
162.7800522563
 30
0.0
 40
0.3400000000000034
  0
CIRCLE
  5
29C
330
1F
100
AcDbEntity
  8
0
  6
Continuous
 62
     7
370
    15
100
AcDbCircle
 10
246.2671019868
 20
124.7800522563
 30
0.0
 40
0.3399999999999892
  0
CIRCLE
  5
29D
330
1F
100
AcDbEntity
  8
0
  6
Continuous
 62
     7
370
    15
100
AcDbCircle
 10
246.2671019868
 20
86.7800522563
 30
0.0
 40
0.3400000000000034
  0
LINE
  5
29E
330
1F
100
AcDbEntity
  8
0
  6
Continuous
 62
     7
370
    15
100
AcDbLine
 10
244.7071019868
 20
81.7000522563
 30
0.0
 11
244.7071019868
 21
167.8600522563
 31
0.0
  0
LINE
  5
29F
330
1F
100
AcDbEntity
  8
0
  6
Continuous
 62
     7
370
    15
100
AcDbLine
 10
244.7071019868
 20
167.8600522563
 30
0.0
 11
244.7071019868
 21
171.0000522563
 31
0.0
  0
ARC
  5
2A0
330
1F
100
AcDbEntity
  8
0
  6
Continuous
 62
     7
370
    15
100
AcDbCircle
 10
245.1671019868
 20
171.0000522563
 30
0.0
 40
0.4600000000000091
100
AcDbArc
 50
102.5558577986
 51
180.0
  0
ARC
  5
2A1
330
1F
100
AcDbEntity
  8
0
  6
Continuous
 62
     7
370
    15
100
AcDbCircle
 10
245.1671019868
 20
78.5600522563
 30
0.0
 40
0.460000000000008
100
AcDbArc
 50
180.0
 51
257.4441422014
  0
LINE
  5
2A2
330
1F
100
AcDbEntity
  8
0
  6
Continuous
 62
     7
370
    15
100
AcDbLine
 10
244.7071019868
 20
78.5600522563
 30
0.0
 11
244.7071019868
 21
81.7000522563
 31
0.0
  0
ARC
  5
2A3
330
1F
100
AcDbEntity
  8
0
  6
Continuous
 62
     7
370
    15
100
AcDbCircle
 10
244.2271019868
 20
91.1371803855
 30
0.0
 40
0.4800000000000124
100
AcDbArc
 50
300.0
 51
0.0
  0
ARC
  5
2A4
330
1F
100
AcDbEntity
  8
0
  6
Continuous
 62
     7
370
    15
100
AcDbCircle
 10
244.2271019868
 20
81.1429241271
 30
0.0
 40
0.4800000000000124
100
AcDbArc
 50
0.0
 51
60.0
  0
LINE
  5
2A5
330
1F
100
AcDbEntity
  8
0
  6
Continuous
 62
     7
370
    15
100
AcDbLine
 10
244.3471019868
 20
90.6522061594
 30
0.0
 11
244.4671019868
 21
90.7214881917
 31
0.0
  0
LINE
  5
2A6
330
1F
100
AcDbEntity
  8
0
  6
Continuous
 62
     7
370
    15
100
AcDbLine
 10
244.3471019868
 20
81.6278983532
 30
0.0
 11
244.4671019868
 21
81.5586163209
 31
0.0
  0
ARC
  5
2A7
330
1F
100
AcDbEntity
  8
0
  6
Continuous
 62
     7
370
    15
100
AcDbCircle
 10
244.5871019868
 20
82.043590547
 30
0.0
 40
0.4799999999999924
100
AcDbArc
 50
192.9171914187
 51
240.0
  0
LINE
  5
2A8
330
1F
100
AcDbEntity
  8
0
  6
Continuous
 62
     7
370
    15
100
AcDbLine
 10
244.1071019868
 20
89.3735524668
 30
0.0
 11
244.1071019868
 21
90.2365139656
 31
0.0
  0
ARC
  5
2A9
330
1F
100
AcDbEntity
  8
0
  6
Continuous
 62
     7
370
    15
100
AcDbCircle
 10
244.5871019868
 20
90.2365139656
 30
0.0
 40
0.4799999999999898
100
AcDbArc
 50
120.0
 51
180.0
  0
ARC
  5
2AA
330
1F
100
AcDbEntity
  8
0
  6
Continuous
 62
     7
370
    15
100
AcDbCircle
 10
244.2271019868
 20
95.7400522563
 30
0.0
 40
0.4799999999999982
100
AcDbArc
 50
0.0
 51
78.9785503645
  0
ARC
  5
2AB
330
1F
100
AcDbEntity
  8
0
  6
Continuous
 62
     7
370
    15
100
AcDbCircle
 10
244.2271019868
 20
167.7600522563
 30
0.0
 40
0.4800000000000261
100
AcDbArc
 50
281.0214496355
 51
0.0
  0
LINE
  5
2AC
330
1F
100
AcDbEntity
  8
0
  6
Continuous
 62
     7
370
    15
100
AcDbLine
 10
243.6071019868
 20
105.2200522563
 30
0.0
 11
243.6071019868
 21
158.2800522563
 31
0.0
  0
LINE
  5
2AD
330
1F
100
AcDbEntity
  8
0
  6
Continuous
 62
     7
370
    15
100
AcDbLine
 10
243.6071019868
 20
158.2800522563
 30
0.0
 11
243.6071019868
 21
160.9815992615
 31
0.0
  0
LINE
  5
2AE
330
1F
100
AcDbEntity
  8
0
  6
Continuous
 62
     7
370
    15
100
AcDbLine
 10
243.6071019868
 20
162.7215992615
 30
0.0
 11
243.6071019868
 21
165.9700522567
 31
0.0
  0
ARC
  5
2AF
330
1F
100
AcDbEntity
  8
0
  6
Continuous
 62
     7
370
    15
100
AcDbCircle
 10
244.4871019868
 20
166.4251365286
 30
0.0
 40
0.8800000000000058
100
AcDbArc
 50
101.0214496355
 51
133.6173871882
  0
LINE
  5
2B0
330
1F
100
AcDbEntity
  8
0
  6
Continuous
 62
     7
370
    15
100
AcDbLine
 10
243.6071019868
 20
97.074967984
 30
0.0
 11
243.6071019868
 21
105.2200522563
 31
0.0
  0
ARC
  5
2B1
330
1F
100
AcDbEntity
  8
0
  6
Continuous
 62
     7
370
    15
100
AcDbCircle
 10
244.4871019868
 20
97.074967984
 30
0.0
 40
0.8799999999999994
100
AcDbArc
 50
180.0
 51
258.9785503645
  0
LINE
  5
2B2
330
1F
100
AcDbEntity
  8
0
  6
Continuous
 62
     7
370
    15
100
AcDbLine
 10
245.0671019868
 20
167.7800522563
 30
0.0
 11
245.0671019868
 21
81.7800522563
 31
0.0
  0
LINE
  5
2B3
330
1F
100
AcDbEntity
  8
0
  6
Continuous
 62
     7
370
    15
100
AcDbLine
 10
248.0628404468
 20
81.7800522563
 30
0.0
 11
248.0628404468
 21
167.7800522563
 31
0.0
  0
CIRCLE
  5
2B4
330
1F
100
AcDbEntity
  8
0
  6
Continuous
 62
     7
370
    15
100
AcDbCircle
 10
246.2671019868
 20
86.7800522563
 30
0.0
 40
0.3599999999999994
  0
CIRCLE
  5
2B5
330
1F
100
AcDbEntity
  8
0
  6
Continuous
 62
     7
370
    15
100
AcDbCircle
 10
246.2671019868
 20
124.7800522563
 30
0.0
 40
0.3600000000000136
  0
CIRCLE
  5
2B6
330
1F
100
AcDbEntity
  8
0
  6
Continuous
 62
     7
370
    15
100
AcDbCircle
 10
246.2671019868
 20
162.7800522563
 30
0.0
 40
0.3599999999999852
  0
LINE
  5
2B7
330
1F
100
AcDbEntity
  8
0
  6
Continuous
 62
     7
370
    15
100
AcDbLine
 10
245.0671019868
 20
77.9370522563
 30
0.0
 11
248.0628404468
 21
77.9370522563
 31
0.0
  0
LINE
  5
2B8
330
1F
100
AcDbEntity
  8
0
  6
Continuous
 62
     7
370
    15
100
AcDbLine
 10
245.0671019868
 20
81.7800522563
 30
0.0
 11
245.0671019868
 21
77.9370522563
 31
0.0
  0
LINE
  5
2B9
330
1F
100
AcDbEntity
  8
0
  6
Continuous
 62
     7
370
    15
100
AcDbLine
 10
248.0628404468
 20
77.9370522563
 30
0.0
 11
248.0628404468
 21
81.7800522563
 31
0.0
  0
LINE
  5
2BA
330
1F
100
AcDbEntity
  8
0
  6
Continuous
 62
     7
370
    15
100
AcDbLine
 10
252.2241098555
 20
78.155135145
 30
0.0
 11
248.0628404468
 21
77.9370522563
 31
0.0
  0
LINE
  5
2BB
330
1F
100
AcDbEntity
  8
0
  6
Continuous
 62
     7
370
    15
100
AcDbLine
 10
245.0671019868
 20
171.6230522563
 30
0.0
 11
248.0628404468
 21
171.6230522563
 31
0.0
  0
LINE
  5
2BC
330
1F
100
AcDbEntity
  8
0
  6
Continuous
 62
     7
370
    15
100
AcDbLine
 10
248.0628404468
 20
167.7800522563
 30
0.0
 11
248.0628404468
 21
171.6230522563
 31
0.0
  0
LINE
  5
2BD
330
1F
100
AcDbEntity
  8
0
  6
Continuous
 62
     7
370
    15
100
AcDbLine
 10
245.0671019868
 20
171.6230522563
 30
0.0
 11
245.0671019868
 21
167.7800522563
 31
0.0
  0
LINE
  5
2BE
330
1F
100
AcDbEntity
  8
0
  6
Continuous
 62
     7
370
    15
100
AcDbLine
 10
252.2241098555
 20
171.4049693676
 30
0.0
 11
248.0628404468
 21
171.6230522563
 31
0.0
  0
ARC
  5
2BF
330
1F
100
AcDbEntity
  8
0
  6
Continuous
 62
     7
370
    15
100
AcDbCircle
 10
252.0671019868
 20
168.4090807633
 30
0.0
 40
2.999999999999989
100
AcDbArc
 50
0.0
 51
87.0
  0
LINE
  5
2C0
330
1F
100
AcDbEntity
  8
0
  6
Continuous
 62
     7
370
    15
100
AcDbLine
 10
255.0671019868
 20
168.4090807633
 30
0.0
 11
255.0671019868
 21
167.7800522563
 31
0.0
  0
LINE
  5
2C1
330
1F
100
AcDbEntity
  8
0
  6
Continuous
 62
     7
370
    15
100
AcDbLine
 10
255.0671019868
 20
167.7800522563
 30
0.0
 11
255.0671019868
 21
81.7800522563
 31
0.0
  0
LINE
  5
2C2
330
1F
100
AcDbEntity
  8
0
  6
Continuous
 62
     7
370
    15
100
AcDbLine
 10
255.0671019868
 20
81.7800522563
 30
0.0
 11
255.0671019868
 21
81.1510237493
 31
0.0
  0
ARC
  5
2C3
330
1F
100
AcDbEntity
  8
0
  6
Continuous
 62
     7
370
    15
100
AcDbCircle
 10
252.0671019868
 20
81.1510237493
 30
0.0
 40
3.000000000000018
100
AcDbArc
 50
273.0
 51
0.0
  0
LINE
  5
2C4
330
1F
100
AcDbEntity
  8
0
  6
Continuous
 62
     7
370
    15
100
AcDbLine
 10
243.3256877732
 20
78.0000522563
 30
0.0
 11
243.3271019868
 21
78.0000522563
 31
0.0
  0
LINE
  5
2C5
330
1F
100
AcDbEntity
  8
0
  6
Continuous
 62
     7
370
    15
100
AcDbLine
 10
243.3271019868
 20
78.0014664702
 30
0.0
 11
243.3271019868
 21
78.0000522563
 31
0.0
  0
LINE
  5
2C6
330
1F
100
AcDbEntity
  8
0
  6
Continuous
 62
     7
370
    15
100
AcDbLine
 10
243.1671019868
 20
78.2058535449
 30
0.0
 11
243.1671019868
 21
78.1004459778
 31
0.0
  0
LINE
  5
2C7
330
1F
100
AcDbEntity
  8
0
  6
Continuous
 62
     7
370
    15
100
AcDbLine
 10
243.5771019868
 20
174.0000522563
 30
0.0
 11
243.662045712
 21
174.0000522565
 31
0.0
  0
ARC
  5
2C8
330
1F
100
AcDbEntity
  8
0
  6
Continuous
 62
     7
370
    15
100
AcDbCircle
 10
243.5771019868
 20
173.7500522563
 30
0.0
 40
0.2500000000000284
100
AcDbArc
 50
90.0
 51
121.7672942751
  0
ARC
  5
2C9
330
1F
100
AcDbEntity
  8
0
  6
Continuous
 62
     7
370
    15
100
AcDbCircle
 10
242.9171019868
 20
78.2500522563
 30
0.0
 40
0.2499999999998511
100
AcDbArc
 50
333.2171328024
 51
350.9211733833
  0
ARC
  5
2CA
330
1F
100
AcDbEntity
  8
0
  6
Continuous
 62
     7
370
    15
100
AcDbCircle
 10
244.3271019868
 20
98.2401621497
 30
0.0
 40
1.000000000000024
100
AcDbArc
 50
136.0544804373
 51
147.140119621
  0
ARC
  5
2CB
330
1F
100
AcDbEntity
  8
0
  6
Continuous
 62
     7
370
    15
100
AcDbCircle
 10
244.3271019868
 20
165.3799423629
 30
0.0
 40
1.000000000000032
100
AcDbArc
 50
212.859880379
 51
223.9455195627
  0
LINE
  5
2CC
330
1F
100
AcDbEntity
  8
0
  6
Continuous
 62
     7
370
    15
100
AcDbLine
 10
243.5871019868
 20
167.7100522567
 30
0.0
 11
243.5871019868
 21
165.9700522567
 31
0.0
  0
LINE
  5
2CD
330
1F
100
AcDbEntity
  8
0
  6
Continuous
 62
     7
370
    15
100
AcDbLine
 10
243.5871019868
 20
82.7100522567
 30
0.0
 11
243.5871019868
 21
80.9700522567
 31
0.0
  0
LINE
  5
2CE
330
1F
100
AcDbEntity
  8
0
  6
Continuous
 62
     7
370
    15
100
AcDbLine
 10
243.5871019868
 20
87.7100522567
 30
0.0
 11
243.5871019868
 21
85.9700522567
 31
0.0
  0
LINE
  5
2CF
330
1F
100
AcDbEntity
  8
0
  6
Continuous
 62
     7
370
    15
100
AcDbLine
 10
243.5871019868
 20
162.7215992615
 30
0.0
 11
243.5871019868
 21
160.9815992615
 31
0.0
  0
LINE
  5
2D0
330
1F
100
AcDbEntity
  8
0
  6
Continuous
 62
     7
370
    15
100
AcDbLine
 10
91.4596117048
 20
223.4400522567
 30
0.0
 11
91.7682849455
 21
223.5000522566
 31
0.0
  0
LINE
  5
2D1
330
1F
100
AcDbEntity
  8
0
  6
Continuous
 62
     7
370
    15
100
AcDbLine
 10
93.8126285761
 20
223.5000522566
 30
0.0
 11
93.8242913947
 21
223.4400522567
 31
0.0
  0
LINE
  5
2D2
330
1F
100
AcDbEntity
  8
0
  6
Continuous
 62
     7
370
    15
100
AcDbLine
 10
85.8774552947
 20
223.4400522567
 30
0.0
 11
85.8657924762
 21
223.5000522566
 31
0.0
  0
LINE
  5
2D3
330
1F
100
AcDbEntity
  8
0
  6
Continuous
 62
     7
370
    15
100
AcDbLine
 10
215.5671019868
 20
77.4500522567
 30
0.0
 11
215.5671019868
 21
74.7000522567
 31
0.0
  0
LINE
  5
2D4
330
1F
100
AcDbEntity
  8
0
  6
Continuous
 62
     7
370
    15
100
AcDbLine
 10
215.8671019868
 20
77.4500522567
 30
0.0
 11
215.8671019868
 21
74.7000522567
 31
0.0
  0
ARC
  5
2D5
330
1F
100
AcDbEntity
  8
0
  6
Continuous
 62
     7
370
    15
100
AcDbCircle
 10
216.1171019868
 20
77.4500522567
 30
0.0
 40
0.5500000000000114
100
AcDbArc
 50
134.8390027471
 51
180.0
  0
ARC
  5
2D6
330
1F
100
AcDbEntity
  8
0
  6
Continuous
 62
     7
370
    15
100
AcDbCircle
 10
216.1171019868
 20
77.4500522567
 30
0.0
 40
0.2500000000000142
100
AcDbArc
 50
90.0
 51
180.0
  0
LINE
  5
2D7
330
1F
100
AcDbEntity
  8
0
  6
Continuous
 62
     7
370
    15
100
AcDbLine
 10
216.1171019868
 20
77.7000522567
 30
0.0
 11
234.8671019868
 21
77.7000522567
 31
0.0
  0
LINE
  5
2D8
330
1F
100
AcDbEntity
  8
0
  6
Continuous
 62
     7
370
    15
100
AcDbLine
 10
235.8671019868
 20
77.7000522567
 30
0.0
 11
235.8671019868
 21
77.8400522567
 31
0.0
  0
LINE
  5
2D9
330
1F
100
AcDbEntity
  8
0
  6
Continuous
 62
     7
370
    15
100
AcDbLine
 10
234.8671019868
 20
77.7000522567
 30
0.0
 11
235.8671019868
 21
77.7000522567
 31
0.0
  0
LINE
  5
2DA
330
1F
100
AcDbEntity
  8
0
  6
Continuous
 62
     7
370
    15
100
AcDbLine
 10
215.5671019868
 20
72.7000522567
 30
0.0
 11
215.8671019868
 21
72.7000522567
 31
0.0
  0
LINE
  5
2DB
330
1F
100
AcDbEntity
  8
0
  6
Continuous
 62
     7
370
    15
100
AcDbLine
 10
215.5671019868
 20
74.7000522567
 30
0.0
 11
215.5671019868
 21
72.7000522567
 31
0.0
  0
LINE
  5
2DC
330
1F
100
AcDbEntity
  8
0
  6
Continuous
 62
     7
370
    15
100
AcDbLine
 10
215.8671019868
 20
74.7000522567
 30
0.0
 11
215.8671019868
 21
72.7000522567
 31
0.0
  0
LINE
  5
2DD
330
1F
100
AcDbEntity
  8
0
  6
Continuous
 62
     7
370
    15
100
AcDbLine
 10
225.8671019868
 20
43.7000522567
 30
0.0
 11
220.5671019868
 21
43.7000522567
 31
0.0
  0
LINE
  5
2DE
330
1F
100
AcDbEntity
  8
0
  6
Continuous
 62
     7
370
    15
100
AcDbLine
 10
231.1671019868
 20
43.7000522567
 30
0.0
 11
225.8671019868
 21
43.7000522567
 31
0.0
  0
LINE
  5
2DF
330
1F
100
AcDbEntity
  8
0
  6
Continuous
 62
     7
370
    15
100
AcDbLine
 10
225.8671019868
 20
44.9000522567
 30
0.0
 11
220.1671019868
 21
44.9000522567
 31
0.0
  0
LINE
  5
2E0
330
1F
100
AcDbEntity
  8
0
  6
Continuous
 62
     7
370
    15
100
AcDbLine
 10
231.5671019868
 20
44.9000522567
 30
0.0
 11
225.8671019868
 21
44.9000522567
 31
0.0
  0
LINE
  5
2E1
330
1F
100
AcDbEntity
  8
0
  6
Continuous
 62
     7
370
    15
100
AcDbLine
 10
115.7671019868
 20
45.2000522567
 30
0.0
 11
115.7271019868
 21
45.2000522567
 31
0.0
  0
LINE
  5
2E2
330
1F
100
AcDbEntity
  8
0
  6
Continuous
 62
     7
370
    15
100
AcDbLine
 10
104.4071019868
 20
45.2000522567
 30
0.0
 11
104.3671019868
 21
45.2000522567
 31
0.0
  0
LINE
  5
2E3
330
1F
100
AcDbEntity
  8
0
  6
Continuous
 62
     7
370
    15
100
AcDbLine
 10
115.7671019868
 20
45.1000522567
 30
0.0
 11
104.3671019868
 21
45.1000522567
 31
0.0
  0
LINE
  5
2E4
330
1F
100
AcDbEntity
  8
0
  6
Continuous
 62
     7
370
    15
100
AcDbLine
 10
115.3671019868
 20
43.9000522567
 30
0.0
 11
104.7671019868
 21
43.9000522567
 31
0.0
  0
LINE
  5
2E5
330
1F
100
AcDbEntity
  8
0
  6
Continuous
 62
     7
370
    15
100
AcDbLine
 10
234.8671019868
 20
77.3000522567
 30
0.0
 11
234.8671019868
 21
77.7000522567
 31
0.0
  0
LINE
  5
2E6
330
1F
100
AcDbEntity
  8
0
  6
Continuous
 62
     7
370
    15
100
AcDbLine
 10
216.8671019868
 20
77.3000522567
 30
0.0
 11
234.8671019868
 21
77.3000522567
 31
0.0
  0
LINE
  5
2E7
330
1F
100
AcDbEntity
  8
0
  6
Continuous
 62
     7
370
    15
100
AcDbLine
 10
216.8671019868
 20
77.3000522567
 30
0.0
 11
216.8671019868
 21
77.7000522567
 31
0.0
  0
LINE
  5
2E8
330
1F
100
AcDbEntity
  8
0
  6
Continuous
 62
     7
370
    15
100
AcDbLine
 10
225.8671019868
 20
58.5000522567
 30
0.0
 11
219.6751719427
 21
58.5000522567
 31
0.0
  0
LINE
  5
2E9
330
1F
100
AcDbEntity
  8
0
  6
Continuous
 62
     7
370
    15
100
AcDbLine
 10
232.0590320309
 20
58.5000522567
 30
0.0
 11
225.8671019868
 21
58.5000522567
 31
0.0
  0
LINE
  5
2EA
330
1F
100
AcDbEntity
  8
0
  6
Continuous
 62
     7
370
    15
100
AcDbLine
 10
119.0671019868
 20
77.5000522567
 30
0.0
 11
119.0671019868
 21
77.8400522567
 31
0.0
  0
LINE
  5
2EB
330
1F
100
AcDbEntity
  8
0
  6
Continuous
 62
     7
370
    15
100
AcDbLine
 10
101.0671019868
 20
77.5000522567
 30
0.0
 11
101.0671019868
 21
77.8400522567
 31
0.0
  0
LINE
  5
2EC
330
1F
100
AcDbEntity
  8
0
  6
Continuous
 62
     7
370
    15
100
AcDbLine
 10
101.0671019868
 20
77.5000522567
 30
0.0
 11
119.0671019868
 21
77.5000522567
 31
0.0
  0
LINE
  5
2ED
330
1F
100
AcDbEntity
  8
0
  6
Continuous
 62
     7
370
    15
100
AcDbLine
 10
116.2590320309
 20
58.7000522567
 30
0.0
 11
103.8751719427
 21
58.7000522567
 31
0.0
  0
LINE
  5
2EE
330
1F
100
AcDbEntity
  8
0
  6
Continuous
 62
     7
370
    15
100
AcDbLine
 10
167.9563769777
 20
77.8000522567
 30
0.0
 11
168.0671019868
 21
77.8000522567
 31
0.0
  0
LINE
  5
2EF
330
1F
100
AcDbEntity
  8
0
  6
Continuous
 62
     7
370
    15
100
AcDbLine
 10
166.7071019868
 20
77.8000522567
 30
0.0
 11
167.9563769777
 21
77.8000522567
 31
0.0
  0
LINE
  5
2F0
330
1F
100
AcDbEntity
  8
0
  6
Continuous
 62
     7
370
    15
100
AcDbLine
 10
167.8642883763
 20
77.1000522567
 30
0.0
 11
167.9571019868
 21
77.1000522567
 31
0.0
  0
LINE
  5
2F1
330
1F
100
AcDbEntity
  8
0
  6
Continuous
 62
     7
370
    15
100
AcDbLine
 10
166.8171019868
 20
77.1000522567
 30
0.0
 11
167.8642883763
 21
77.1000522567
 31
0.0
  0
LINE
  5
2F2
330
1F
100
AcDbEntity
  8
0
  6
Continuous
 62
     7
370
    15
100
AcDbLine
 10
167.9061468315
 20
77.2200522567
 30
0.0
 11
168.0071019868
 21
77.2200522567
 31
0.0
  0
LINE
  5
2F3
330
1F
100
AcDbEntity
  8
0
  6
Continuous
 62
     7
370
    15
100
AcDbLine
 10
166.7671019868
 20
77.2200522567
 30
0.0
 11
167.9061468315
 21
77.2200522567
 31
0.0
  0
LINE
  5
2F4
330
1F
100
AcDbEntity
  8
0
  6
Continuous
 62
     7
370
    15
100
AcDbLine
 10
159.2363769777
 20
77.8000522567
 30
0.0
 11
159.3471019868
 21
77.8000522567
 31
0.0
  0
LINE
  5
2F5
330
1F
100
AcDbEntity
  8
0
  6
Continuous
 62
     7
370
    15
100
AcDbLine
 10
157.9871019868
 20
77.8000522567
 30
0.0
 11
159.2363769777
 21
77.8000522567
 31
0.0
  0
LINE
  5
2F6
330
1F
100
AcDbEntity
  8
0
  6
Continuous
 62
     7
370
    15
100
AcDbLine
 10
159.1861468315
 20
77.2200522567
 30
0.0
 11
159.2871019868
 21
77.2200522567
 31
0.0
  0
LINE
  5
2F7
330
1F
100
AcDbEntity
  8
0
  6
Continuous
 62
     7
370
    15
100
AcDbLine
 10
158.0471019868
 20
77.2200522567
 30
0.0
 11
159.1861468315
 21
77.2200522567
 31
0.0
  0
LINE
  5
2F8
330
1F
100
AcDbEntity
  8
0
  6
Continuous
 62
     7
370
    15
100
AcDbLine
 10
159.1442883763
 20
77.1000522567
 30
0.0
 11
159.2371019868
 21
77.1000522567
 31
0.0
  0
LINE
  5
2F9
330
1F
100
AcDbEntity
  8
0
  6
Continuous
 62
     7
370
    15
100
AcDbLine
 10
158.0971019868
 20
77.1000522567
 30
0.0
 11
159.1442883763
 21
77.1000522567
 31
0.0
  0
LINE
  5
2FA
330
1F
100
AcDbEntity
  8
0
  6
Continuous
 62
     7
370
    15
100
AcDbLine
 10
209.6363769777
 20
77.8000522567
 30
0.0
 11
209.7471019868
 21
77.8000522567
 31
0.0
  0
LINE
  5
2FB
330
1F
100
AcDbEntity
  8
0
  6
Continuous
 62
     7
370
    15
100
AcDbLine
 10
208.3871019868
 20
77.8000522567
 30
0.0
 11
209.6363769777
 21
77.8000522567
 31
0.0
  0
LINE
  5
2FC
330
1F
100
AcDbEntity
  8
0
  6
Continuous
 62
     7
370
    15
100
AcDbLine
 10
209.5442883763
 20
77.1000522567
 30
0.0
 11
209.6371019868
 21
77.1000522567
 31
0.0
  0
LINE
  5
2FD
330
1F
100
AcDbEntity
  8
0
  6
Continuous
 62
     7
370
    15
100
AcDbLine
 10
208.4971019868
 20
77.1000522567
 30
0.0
 11
209.5442883763
 21
77.1000522567
 31
0.0
  0
LINE
  5
2FE
330
1F
100
AcDbEntity
  8
0
  6
Continuous
 62
     7
370
    15
100
AcDbLine
 10
209.5861468315
 20
77.2200522567
 30
0.0
 11
209.6871019868
 21
77.2200522567
 31
0.0
  0
LINE
  5
2FF
330
1F
100
AcDbEntity
  8
0
  6
Continuous
 62
     7
370
    15
100
AcDbLine
 10
208.4471019868
 20
77.2200522567
 30
0.0
 11
209.5861468315
 21
77.2200522567
 31
0.0
  0
LINE
  5
300
330
1F
100
AcDbEntity
  8
0
  6
Continuous
 62
     7
370
    15
100
AcDbLine
 10
132.0963769777
 20
77.8000522567
 30
0.0
 11
132.2071019868
 21
77.8000522567
 31
0.0
  0
LINE
  5
301
330
1F
100
AcDbEntity
  8
0
  6
Continuous
 62
     7
370
    15
100
AcDbLine
 10
130.8471019868
 20
77.8000522567
 30
0.0
 11
132.0963769777
 21
77.8000522567
 31
0.0
  0
LINE
  5
302
330
1F
100
AcDbEntity
  8
0
  6
Continuous
 62
     7
370
    15
100
AcDbLine
 10
132.0461468315
 20
77.2200522567
 30
0.0
 11
132.1471019868
 21
77.2200522567
 31
0.0
  0
LINE
  5
303
330
1F
100
AcDbEntity
  8
0
  6
Continuous
 62
     7
370
    15
100
AcDbLine
 10
130.9071019868
 20
77.2200522567
 30
0.0
 11
132.0461468315
 21
77.2200522567
 31
0.0
  0
LINE
  5
304
330
1F
100
AcDbEntity
  8
0
  6
Continuous
 62
     7
370
    15
100
AcDbLine
 10
132.0042883763
 20
77.1000522567
 30
0.0
 11
132.0971019868
 21
77.1000522567
 31
0.0
  0
LINE
  5
305
330
1F
100
AcDbEntity
  8
0
  6
Continuous
 62
     7
370
    15
100
AcDbLine
 10
130.9571019868
 20
77.1000522567
 30
0.0
 11
132.0042883763
 21
77.1000522567
 31
0.0
  0
LINE
  5
306
330
1F
100
AcDbEntity
  8
0
  6
Continuous
 62
     7
370
    15
100
AcDbLine
 10
186.7163769777
 20
77.8000522567
 30
0.0
 11
186.8271019868
 21
77.8000522567
 31
0.0
  0
LINE
  5
307
330
1F
100
AcDbEntity
  8
0
  6
Continuous
 62
     7
370
    15
100
AcDbLine
 10
185.4671019868
 20
77.8000522567
 30
0.0
 11
186.7163769777
 21
77.8000522567
 31
0.0
  0
LINE
  5
308
330
1F
100
AcDbEntity
  8
0
  6
Continuous
 62
     7
370
    15
100
AcDbLine
 10
186.6242883763
 20
77.1000522567
 30
0.0
 11
186.7171019868
 21
77.1000522567
 31
0.0
  0
LINE
  5
309
330
1F
100
AcDbEntity
  8
0
  6
Continuous
 62
     7
370
    15
100
AcDbLine
 10
185.5771019868
 20
77.1000522567
 30
0.0
 11
186.6242883763
 21
77.1000522567
 31
0.0
  0
LINE
  5
30A
330
1F
100
AcDbEntity
  8
0
  6
Continuous
 62
     7
370
    15
100
AcDbLine
 10
186.6661468315
 20
77.2200522567
 30
0.0
 11
186.7671019868
 21
77.2200522567
 31
0.0
  0
LINE
  5
30B
330
1F
100
AcDbEntity
  8
0
  6
Continuous
 62
     7
370
    15
100
AcDbLine
 10
185.5271019868
 20
77.2200522567
 30
0.0
 11
186.6661468315
 21
77.2200522567
 31
0.0
  0
LINE
  5
30C
330
1F
100
AcDbEntity
  8
0
  6
Continuous
 62
     7
370
    15
100
AcDbLine
 10
195.2363769777
 20
77.8000522567
 30
0.0
 11
195.3471019868
 21
77.8000522567
 31
0.0
  0
LINE
  5
30D
330
1F
100
AcDbEntity
  8
0
  6
Continuous
 62
     7
370
    15
100
AcDbLine
 10
193.9871019868
 20
77.8000522567
 30
0.0
 11
195.2363769777
 21
77.8000522567
 31
0.0
  0
LINE
  5
30E
330
1F
100
AcDbEntity
  8
0
  6
Continuous
 62
     7
370
    15
100
AcDbLine
 10
195.1861468315
 20
77.2200522567
 30
0.0
 11
195.2871019868
 21
77.2200522567
 31
0.0
  0
LINE
  5
30F
330
1F
100
AcDbEntity
  8
0
  6
Continuous
 62
     7
370
    15
100
AcDbLine
 10
194.0471019868
 20
77.2200522567
 30
0.0
 11
195.1861468315
 21
77.2200522567
 31
0.0
  0
LINE
  5
310
330
1F
100
AcDbEntity
  8
0
  6
Continuous
 62
     7
370
    15
100
AcDbLine
 10
195.1442883763
 20
77.1000522567
 30
0.0
 11
195.2371019868
 21
77.1000522567
 31
0.0
  0
LINE
  5
311
330
1F
100
AcDbEntity
  8
0
  6
Continuous
 62
     7
370
    15
100
AcDbLine
 10
194.0971019868
 20
77.1000522567
 30
0.0
 11
195.1442883763
 21
77.1000522567
 31
0.0
  0
LINE
  5
312
330
1F
100
AcDbEntity
  8
0
  6
Continuous
 62
     7
370
    15
100
AcDbLine
 10
201.6363769777
 20
77.8000522567
 30
0.0
 11
201.7471019868
 21
77.8000522567
 31
0.0
  0
LINE
  5
313
330
1F
100
AcDbEntity
  8
0
  6
Continuous
 62
     7
370
    15
100
AcDbLine
 10
200.3871019868
 20
77.8000522567
 30
0.0
 11
201.6363769777
 21
77.8000522567
 31
0.0
  0
LINE
  5
314
330
1F
100
AcDbEntity
  8
0
  6
Continuous
 62
     7
370
    15
100
AcDbLine
 10
201.5442883763
 20
77.1000522567
 30
0.0
 11
201.6371019868
 21
77.1000522567
 31
0.0
  0
LINE
  5
315
330
1F
100
AcDbEntity
  8
0
  6
Continuous
 62
     7
370
    15
100
AcDbLine
 10
200.4971019868
 20
77.1000522567
 30
0.0
 11
201.5442883763
 21
77.1000522567
 31
0.0
  0
LINE
  5
316
330
1F
100
AcDbEntity
  8
0
  6
Continuous
 62
     7
370
    15
100
AcDbLine
 10
201.5861468315
 20
77.2200522567
 30
0.0
 11
201.6871019868
 21
77.2200522567
 31
0.0
  0
LINE
  5
317
330
1F
100
AcDbEntity
  8
0
  6
Continuous
 62
     7
370
    15
100
AcDbLine
 10
200.4471019868
 20
77.2200522567
 30
0.0
 11
201.5861468315
 21
77.2200522567
 31
0.0
  0
LINE
  5
318
330
1F
100
AcDbEntity
  8
0
  6
Continuous
 62
     7
370
    15
100
AcDbLine
 10
134.0963769777
 20
77.8000522567
 30
0.0
 11
134.2071019868
 21
77.8000522567
 31
0.0
  0
LINE
  5
319
330
1F
100
AcDbEntity
  8
0
  6
Continuous
 62
     7
370
    15
100
AcDbLine
 10
132.8471019868
 20
77.8000522567
 30
0.0
 11
134.0963769777
 21
77.8000522567
 31
0.0
  0
LINE
  5
31A
330
1F
100
AcDbEntity
  8
0
  6
Continuous
 62
     7
370
    15
100
AcDbLine
 10
134.0461468315
 20
77.2200522567
 30
0.0
 11
134.1471019868
 21
77.2200522567
 31
0.0
  0
LINE
  5
31B
330
1F
100
AcDbEntity
  8
0
  6
Continuous
 62
     7
370
    15
100
AcDbLine
 10
132.9071019868
 20
77.2200522567
 30
0.0
 11
134.0461468315
 21
77.2200522567
 31
0.0
  0
LINE
  5
31C
330
1F
100
AcDbEntity
  8
0
  6
Continuous
 62
     7
370
    15
100
AcDbLine
 10
134.0042883763
 20
77.1000522567
 30
0.0
 11
134.0971019868
 21
77.1000522567
 31
0.0
  0
LINE
  5
31D
330
1F
100
AcDbEntity
  8
0
  6
Continuous
 62
     7
370
    15
100
AcDbLine
 10
132.9571019868
 20
77.1000522567
 30
0.0
 11
134.0042883763
 21
77.1000522567
 31
0.0
  0
LINE
  5
31E
330
1F
100
AcDbEntity
  8
0
  6
Continuous
 62
     7
370
    15
100
AcDbLine
 10
101.2998953286
 20
73.0200522567
 30
0.0
 11
101.2998953286
 21
74.1000522567
 31
0.0
  0
LINE
  5
31F
330
1F
100
AcDbEntity
  8
0
  6
Continuous
 62
     7
370
    15
100
AcDbLine
 10
101.2998953286
 20
73.0200522567
 30
0.0
 11
98.3490503588
 21
73.0200522567
 31
0.0
  0
LINE
  5
320
330
1F
100
AcDbEntity
  8
0
  6
Continuous
 62
     7
370
    15
100
AcDbLine
 10
98.3490503588
 20
73.0200522567
 30
0.0
 11
98.3490503588
 21
74.1000522567
 31
0.0
  0
LINE
  5
321
330
1F
100
AcDbEntity
  8
0
  6
Continuous
 62
     7
370
    15
100
AcDbLine
 10
101.2998953286
 20
74.1000522567
 30
0.0
 11
98.3490503588
 21
74.1000522567
 31
0.0
  0
LINE
  5
322
330
1F
100
AcDbEntity
  8
0
  6
Continuous
 62
     7
370
    15
100
AcDbLine
 10
103.6871019868
 20
71.2300522567
 30
0.0
 11
99.9421019868
 21
71.2300522567
 31
0.0
  0
LINE
  5
323
330
1F
100
AcDbEntity
  8
0
  6
Continuous
 62
     7
370
    15
100
AcDbLine
 10
103.6871019868
 20
75.4200522567
 30
0.0
 11
98.6921019868
 21
75.4200522567
 31
0.0
  0
LINE
  5
324
330
1F
100
AcDbEntity
  8
0
  6
Continuous
 62
     7
370
    15
100
AcDbLine
 10
101.2325648015
 20
77.0800522567
 30
0.0
 11
101.2325648015
 21
77.5000522567
 31
0.0
  0
LINE
  5
325
330
1F
100
AcDbEntity
  8
0
  6
Continuous
 62
     7
370
    15
100
AcDbLine
 10
98.5119253295
 20
77.0800522567
 30
0.0
 11
98.5119253295
 21
77.8400522567
 31
0.0
  0
LINE
  5
326
330
1F
100
AcDbEntity
  8
0
  6
Continuous
 62
     7
370
    15
100
AcDbLine
 10
101.2325648015
 20
77.0800522567
 30
0.0
 11
98.5119253295
 21
77.0800522567
 31
0.0
  0
LINE
  5
327
330
1F
100
AcDbEntity
  8
0
  6
Continuous
 62
     7
370
    15
100
AcDbLine
 10
103.6871019868
 20
76.4900522567
 30
0.0
 11
98.8971019868
 21
76.4900522567
 31
0.0
  0
LINE
  5
328
330
1F
100
AcDbEntity
  8
0
  6
Continuous
 62
     7
370
    15
100
AcDbLine
 10
103.6871019868
 20
73.0200522567
 30
0.0
 11
101.2998953286
 21
73.0200522567
 31
0.0
  0
LINE
  5
329
330
1F
100
AcDbEntity
  8
0
  6
Continuous
 62
     7
370
    15
100
AcDbLine
 10
103.6871019868
 20
74.1000522567
 30
0.0
 11
101.2998953286
 21
74.1000522567
 31
0.0
  0
LINE
  5
32A
330
1F
100
AcDbEntity
  8
0
  6
Continuous
 62
     7
370
    15
100
AcDbLine
 10
101.4172804165
 20
77.0800522567
 30
0.0
 11
101.4172804165
 21
77.5000522567
 31
0.0
  0
LINE
  5
32B
330
1F
100
AcDbEntity
  8
0
  6
Continuous
 62
     7
370
    15
100
AcDbLine
 10
101.4172804165
 20
77.0800522567
 30
0.0
 11
101.2325648015
 21
77.0800522567
 31
0.0
  0
LINE
  5
32C
330
1F
100
AcDbEntity
  8
0
  6
Continuous
 62
     7
370
    15
100
AcDbLine
 10
103.6871019868
 20
77.0800522567
 30
0.0
 11
101.4172804165
 21
77.0800522567
 31
0.0
  0
LINE
  5
32D
330
1F
100
AcDbEntity
  8
0
  6
Continuous
 62
     7
370
    15
100
AcDbLine
 10
98.4515548796
 20
77.0800522567
 30
0.0
 11
98.4515548796
 21
77.8400522567
 31
0.0
  0
LINE
  5
32E
330
1F
100
AcDbEntity
  8
0
  6
Continuous
 62
     7
370
    15
100
AcDbLine
 10
98.5119253295
 20
77.0800522567
 30
0.0
 11
98.4515548796
 21
77.0800522567
 31
0.0
  0
LINE
  5
32F
330
1F
100
AcDbEntity
  8
0
  6
Continuous
 62
     7
370
    15
100
AcDbLine
 10
238.1671019868
 20
77.3400522563
 30
0.0
 11
241.1671019868
 21
77.3400522563
 31
0.0
  0
LINE
  5
330
330
1F
100
AcDbEntity
  8
0
  6
Continuous
 62
     7
370
    15
100
AcDbLine
 10
238.1671019868
 20
77.6400522563
 30
0.0
 11
241.1671019868
 21
77.6400522563
 31
0.0
  0
LINE
  5
331
330
1F
100
AcDbEntity
  8
0
  6
Continuous
 62
     7
370
    15
100
AcDbLine
 10
236.6671019868
 20
77.3400522563
 30
0.0
 11
236.6671019868
 21
77.6400522563
 31
0.0
  0
LINE
  5
332
330
1F
100
AcDbEntity
  8
0
  6
Continuous
 62
     7
370
    15
100
AcDbLine
 10
236.6671019868
 20
77.3400522563
 30
0.0
 11
238.1671019868
 21
77.3400522563
 31
0.0
  0
LINE
  5
333
330
1F
100
AcDbEntity
  8
0
  6
Continuous
 62
     7
370
    15
100
AcDbLine
 10
236.6671019868
 20
77.6400522563
 30
0.0
 11
238.1671019868
 21
77.6400522563
 31
0.0
  0
LINE
  5
334
330
1F
100
AcDbEntity
  8
0
  6
Continuous
 62
     7
370
    15
100
AcDbLine
 10
242.6671019868
 20
77.3400522563
 30
0.0
 11
242.6671019868
 21
77.6400522563
 31
0.0
  0
LINE
  5
335
330
1F
100
AcDbEntity
  8
0
  6
Continuous
 62
     7
370
    15
100
AcDbLine
 10
241.1671019868
 20
77.3400522563
 30
0.0
 11
242.6671019868
 21
77.3400522563
 31
0.0
  0
LINE
  5
336
330
1F
100
AcDbEntity
  8
0
  6
Continuous
 62
     7
370
    15
100
AcDbLine
 10
241.1671019868
 20
77.6400522563
 30
0.0
 11
242.6671019868
 21
77.6400522563
 31
0.0
  0
LINE
  5
337
330
1F
100
AcDbEntity
  8
0
  6
Continuous
 62
     7
370
    15
100
AcDbLine
 10
234.8671019868
 20
77.3400522563
 30
0.0
 11
236.6671019868
 21
77.3400522563
 31
0.0
  0
LINE
  5
338
330
1F
100
AcDbEntity
  8
0
  6
Continuous
 62
     7
370
    15
100
AcDbLine
 10
234.8671019868
 20
77.6400522563
 30
0.0
 11
236.6671019868
 21
77.6400522563
 31
0.0
  0
ENDSEC
  0
SECTION
  2
OBJECTS
  0
DICTIONARY
  5
C
330
0
100
AcDbDictionary
281
     1
  3
ACAD_GROUP
350
D
  3
ACAD_LAYOUT
350
1A
  3
ACAD_MLINESTYLE
350
17
  3
ACAD_PLOTSETTINGS
350
19
  3
ACAD_PLOTSTYLENAME
350
E
  0
DICTIONARY
  5
D
102
{ACAD_REACTORS
330
C
102
}
330
C
100
AcDbDictionary
281
     1
  0
DICTIONARY
  5
1A
102
{ACAD_REACTORS
330
C
102
}
330
C
100
AcDbDictionary
281
     1
  3
Layout1
350
1E
  3
Layout2
350
26
  3
Model
350
22
  0
DICTIONARY
  5
17
102
{ACAD_REACTORS
330
C
102
}
330
C
100
AcDbDictionary
281
     1
  3
Standard
350
18
  0
DICTIONARY
  5
19
102
{ACAD_REACTORS
330
C
102
}
330
C
100
AcDbDictionary
281
     1
  0
ACDBDICTIONARYWDFLT
  5
E
102
{ACAD_REACTORS
330
C
102
}
330
C
100
AcDbDictionary
281
     1
  3
Normal
350
F
100
AcDbDictionaryWithDefault
340
F
  0
LAYOUT
  5
1E
102
{ACAD_REACTORS
330
1A
102
}
330
1A
100
AcDbPlotSettings
  1

  2
none_device
  4

  6

 40
0.0
 41
0.0
 42
0.0
 43
0.0
 44
0.0
 45
0.0
 46
0.0
 47
0.0
 48
0.0
 49
0.0
140
0.0
141
0.0
142
1.0
143
1.0
 70
   688
 72
     0
 73
     0
 74
     5
  7

 75
    16
147
1.0
148
0.0
149
0.0
100
AcDbLayout
  1
Layout1
 70
     1
 71
     1
 10
0.0
 20
0.0
 11
420.0
 21
297.0
 12
0.0
 22
0.0
 32
0.0
 14
1.0000000000E+20
 24
1.0000000000E+20
 34
1.0000000000E+20
 15
-1.0000000000E+20
 25
-1.0000000000E+20
 35
-1.0000000000E+20
146
0.0
 13
0.0
 23
0.0
 33
0.0
 16
1.0
 26
0.0
 36
0.0
 17
0.0
 27
1.0
 37
0.0
 76
     0
330
1B
  0
LAYOUT
  5
26
102
{ACAD_REACTORS
330
1A
102
}
330
1A
100
AcDbPlotSettings
  1

  2
none_device
  4

  6

 40
0.0
 41
0.0
 42
0.0
 43
0.0
 44
0.0
 45
0.0
 46
0.0
 47
0.0
 48
0.0
 49
0.0
140
0.0
141
0.0
142
1.0
143
1.0
 70
   688
 72
     0
 73
     0
 74
     5
  7

 75
    16
147
1.0
148
0.0
149
0.0
100
AcDbLayout
  1
Layout2
 70
     1
 71
     2
 10
0.0
 20
0.0
 11
0.0
 21
0.0
 12
0.0
 22
0.0
 32
0.0
 14
0.0
 24
0.0
 34
0.0
 15
0.0
 25
0.0
 35
0.0
146
0.0
 13
0.0
 23
0.0
 33
0.0
 16
1.0
 26
0.0
 36
0.0
 17
0.0
 27
1.0
 37
0.0
 76
     0
330
23
  0
LAYOUT
  5
22
102
{ACAD_REACTORS
330
1A
102
}
330
1A
100
AcDbPlotSettings
  1

  2
none_device
  4

  6

 40
0.0
 41
0.0
 42
0.0
 43
0.0
 44
0.0
 45
0.0
 46
0.0
 47
0.0
 48
0.0
 49
0.0
140
0.0
141
0.0
142
1.0
143
1.0
 70
  1712
 72
     0
 73
     0
 74
     0
  7

 75
     0
147
1.0
148
0.0
149
0.0
100
AcDbLayout
  1
Model
 70
     1
 71
     0
 10
0.0
 20
0.0
 11
431.8
 21
279.4
 12
0.0
 22
0.0
 32
0.0
 14
0.0
 24
0.0
 34
0.0
 15
431.8
 25
279.4
 35
0.0
146
0.0
 13
0.0
 23
0.0
 33
0.0
 16
1.0
 26
0.0
 36
0.0
 17
0.0
 27
1.0
 37
0.0
 76
     0
330
1F
331
29
  0
MLINESTYLE
  5
18
102
{ACAD_REACTORS
330
17
102
}
330
17
100
AcDbMlineStyle
  2
Standard
 70
     0
  3

 62
   256
 51
90.0
 52
90.0
 71
     2
 49
0.5
 62
   256
  6
BYLAYER
 49
-0.5
 62
   256
  6
BYLAYER
  0
ACDBPLACEHOLDER
  5
F
102
{ACAD_REACTORS
330
E
102
}
330
E
  0
ENDSEC
  0
EOF
